» » »

Fallacy, Dark Moon Tabs (ver.1)

Artists:  A B C D E F G H I J K L M N O P Q R S T U V W X Y Z # 

Dark Moon Tabs (ver.1)

Fallacy Tabs
 Rating:
4/5 (4 votes)
Dark Moon lessons Tabs too difficult? Try these video lessons and learn fast
1
                ~Fallacy~

Intro
-0-0-0-0-0-0-0-0-3-3-3-3-3-3-3-3-7-7-7-7-7-7-7-7-5-5-5-5-5-5-5-5-l
pm...............................................................

Course
-----------------------------l
-----------------------------l
-----------------------------l
-----------------------------l
-0-0-00-3-3-33-7-7-77-5-5-55-l
-0-0-00-3-3-33-7-7-77-5-5-55-l

Verse
---------0---------------3---------------7---------------5-------
---------------0---------------3---------------7---------------5-
-0-0-0-0---0-0---3-3-3-3---3-3---7-7-7-7---7-7---5-5-5-5---5-5---
pm......   ...   .......   ...   .......   ...   .......   ...

Verse part 2
---------------------------------------------
---------------------------------------------
---------------------------------------------
-------------------------------7~---------5~-
---------0~---------3~-----------------------
-0-0-0-0----3-3-3-3----7-7-7-7----5-5-5-5----
pm......    .......    .......    .......

Course
-----------------------------l
-----------------------------l
-----------------------------l
-----------------------------l
-0-0-00-3-3-33-7-7-77-5-5-55-l
-0-0-00-3-3-33-7-7-77-5-5-55-l

Verse
---------0---------------3---------------7---------------5-------
---------------0---------------3---------------7---------------5-
-0-0-0-0---0-0---3-3-3-3---3-3---7-7-7-7---7-7---5-5-5-5---5-5---
pm......   ...   .......   ...   .......   ...   .......   ...

Verse part 2
---------------------------------------------
---------------------------------------------
---------------------------------------------
-------------------------------7~---------5~-
---------0~---------3~-----------------------
-0-0-0-0----3-3-3-3----7-7-7-7----5-5-5-5----
pm......    .......    .......    .......

Course
-----------------------------l
-----------------------------l
-----------------------------l
-----------------------------l
-0-0-00-3-3-33-7-7-77-5-5-55-l
-0-0-00-3-3-33-7-7-77-5-5-55-l

Interlude
-0-0-0-0-0-0-0-0-3-3-3-3-3-3-3-3-7-7-7-7-7-7-7-7-5-5-5-5-5-5-5-5-
-0-0-0-0-0-0-0-0-3-3-3-3-3-3-3-3-7-7-7-7-7-7-7-7-5-5-5-5-5-5-5-5-
pm................................................................

-2-2-2-2-2-2-2-2-5-5-5-5-5-5-5-5-9-9-9-9-9-9-9-9-7-7-7-7-7-7-7-7-l
-0-0-0-0-0-0-0-0-3-3-3-3-3-3-3-3-7-7-7-7-7-7-7-7-5-5-5-5-5-5-5-5-l
pm...............................................................

Course
-----------------------------l
-----------------------------l
-----------------------------l
-----------------------------l
-0-0-00-3-3-33-7-7-77-5-5-55-l
-0-0-00-3-3-33-7-7-77-5-5-55-l

Solo
--------------------/12-10-15-15-13-19-19-19-19-19-19-17~-l
----------------------------------------------------------l
-/12-10-15-13-19-17---------------------------------------l
----------------------------------------------------------l
----------------------------------------------------------l
----------------------------------------------------------l

Intro
-0-0-0-0-0-0-0-0-3-3-3-3-3-3-3-3-7-7-7-7-7-7-7-7-5-5-5-5-5-5-5-5-l
pm...............................................................

Course
-----------------------------l
-----------------------------l
-----------------------------l
-----------------------------l
-0-0-00-3-3-33-7-7-77-5-5-55-l
-0-0-00-3-3-33-7-7-77-5-5-55-l

End On
---l
---l
---l
---l
-0-l
-0-l
            
Submit corrections

comments powered by Disqus
↑ Back to top | Fallacy Tabs for Dark Moon. Lyrics for acoustic guitar and electric guitar. 1 Tablatures and chords are parodies/interpretations of the original songs. You may use it for private study, scholarship, research or language learning purposes only