» » »

Bein Social Tabs (ver.1)

Artists:  A B C D E F G H I J K L M N O P Q R S T U V W X Y Z # 

Bein Social Tabs (ver.1)

Fallacy
Rating:
0/5 (0 votes)

Tabs too difficult? Try these video lessons and learn fast.
                Fallacy~
Bein' Social

Intro
-------0-------0-------3-------3-------0-------0-------5-------5-
-----0-------0-------3-------3-------0-------0-------5-------5---
---0-------0-------3-------3-------0-------0-------5-------5-----
-0-------0-------3-------3-------0-------0-------5-------5-------

--------------------------------------------------l
-------0-------0-------2-------3-------1-------2~-l
-----0-------0-------2-------3-------1-------2----l
---0-------0-------2-------3-------1-------2------l
-0-------0-------2-------3-------1-------2--------l
--------------------------------------------------l

Verse #1
---------------------------------l---------------l
---------------------------------l---------------l
---------------------------------l---------------l
-3-3-3-3-3-3-3-3-0-0-0-0-0-0-0-0-l-3-3-33-0-0-00-l
-3-3-3-3-3-3-3-3-0-0-0-0-0-0-0-0-l-3-3-33-0-0-00-l
-3-3-3-3-3-3-3-3-0-0-0-0-0-0-0-0-l-3-3-33-0-0-00-l

Bridge
----------l
----------l
----------l
-3-5-7-0~-l
-3-5-7-0~-l
-3-5-7-0~-l

Course
-3-3-3-3-3-3-3-3-0-0-0-0-0-0-0-0-5-5-5-5-5-5-7-7-0-0-0-0-0-0-0-0-
-3-3-3-3-3-3-3-3-0-0-0-0-0-0-0-0-5-5-5-5-5-5-7-7-0-0-0-0-0-0-0-0-
-3-3-3-3-3-3-3-3-0-0-0-0-0-0-0-0-5-5-5-5-5-5-7-7-0-0-0-0-0-0-0-0-

Bridge
----------l
----------l
----------l
-3-5-7-0~-l
-3-5-7-0~-l
-3-5-7-0~-l

Verse #2
-3-3-3-3-3-3-3-3-0-0-0-0-0-0-0-0-3-3-3-3-3-3-3-3-0-0-0-0-0-0-0-0-
-3-3-3-3-3-3-3-3-0-0-0-0-0-0-0-0-3-3-3-3-3-3-3-3-0-0-0-0-0-0-0-0-
-3-3-3-3-3-3-3-3-0-0-0-0-0-0-0-0-3-3-3-3-3-3-3-3-0-0-0-0-0-0-0-0-

-3-3-3-7-7-7-9-9-0-0-0-0-0-0-0-0-3-3-3-5-5-5-7-7-0-0-0-0-0-0-0-0-l
-3-3-3-7-7-7-9-9-0-0-0-0-0-0-0-0-3-3-3-5-5-5-7-7-0-0-0-0-0-0-0-0-l
-3-3-3-7-7-7-9-9-0-0-0-0-0-0-0-0-3-3-3-5-5-5-7-7-0-0-0-0-0-0-0-0-l

Bridge
----------l
----------l
----------l
-3-5-7-0~-l
-3-5-7-0~-l
-3-5-7-0~-l

Course
-3-3-3-3-3-3-3-3-0-0-0-0-0-0-0-0-5-5-5-5-5-5-7-7-0-0-0-0-0-0-0-0-
-3-3-3-3-3-3-3-3-0-0-0-0-0-0-0-0-5-5-5-5-5-5-7-7-0-0-0-0-0-0-0-0-
-3-3-3-3-3-3-3-3-0-0-0-0-0-0-0-0-5-5-5-5-5-5-7-7-0-0-0-0-0-0-0-0-

2nd Bridge
---------------------------------l
---------------------------------l
---------------------------------l
-3-5-7-0~-3-5-7-0~-3-5-7-9-11-0~-l
-3-5-7-0~-3-5-7-0~-3-5-7-9-11-0~-l
-3-5-7-0~-3-5-7-0~-3-5-7-9-11-0~-l

Solo
-3-3-3-5-5-5-7-7-2-2-2-2-2-2-2-2-3-3-3-5-5-5-7-7-2-2-2-2-2-2-2-2-x2-

-/-15-15-15-17-17-17-19-19-14-14-14-14-14-14-14-14-x4-
------------------------------------------------------
------------------------------------------------------
------------------------------------------------------
------------------------------------------------------
------------------------------------------------------

-12-12-12-9-9-9-7-7-6-6-6-6-6-6-6-6-12-12-12-9-9-9-7-7-6-6-6-6-6-6-6-6-

-15-15-15-17-17-17-19-19-14-14-14-14-14-14-14-14-17-17-17-19-19-19-21-21-

-16-16-16-16-16-16-16-16-12-12-12-9-9-9-7-7-7-5-5-5-4-4-4-3-3-3-2-2-2-1-l

Verse #2
-3-3-3-3-3-3-3-3-0-0-0-0-0-0-0-0-3-3-3-3-3-3-3-3-0-0-0-0-0-0-0-0-
-3-3-3-3-3-3-3-3-0-0-0-0-0-0-0-0-3-3-3-3-3-3-3-3-0-0-0-0-0-0-0-0-
-3-3-3-3-3-3-3-3-0-0-0-0-0-0-0-0-3-3-3-3-3-3-3-3-0-0-0-0-0-0-0-0-

-3-3-3-7-7-7-9-9-0-0-0-0-0-0-0-0-3-3-3-5-5-5-7-7-0-0-0-0-0-0-0-0-l
-3-3-3-7-7-7-9-9-0-0-0-0-0-0-0-0-3-3-3-5-5-5-7-7-0-0-0-0-0-0-0-0-l
-3-3-3-7-7-7-9-9-0-0-0-0-0-0-0-0-3-3-3-5-5-5-7-7-0-0-0-0-0-0-0-0-l

2nd Bridge
---------------------------------l
---------------------------------l
---------------------------------l
-3-5-7-0~-3-5-7-0~-3-5-7-9-11-0~-l
-3-5-7-0~-3-5-7-0~-3-5-7-9-11-0~-l
-3-5-7-0~-3-5-7-0~-3-5-7-9-11-0~-l

Course
-3-3-3-3-3-3-3-3-0-0-0-0-0-0-0-0-5-5-5-5-5-5-7-7-0-0-0-0-0-0-0-0-
-3-3-3-3-3-3-3-3-0-0-0-0-0-0-0-0-5-5-5-5-5-5-7-7-0-0-0-0-0-0-0-0-
-3-3-3-3-3-3-3-3-0-0-0-0-0-0-0-0-5-5-5-5-5-5-7-7-0-0-0-0-0-0-0-0-

2nd Bridge
---------------------------------l
---------------------------------l
---------------------------------l
-3-5-7-0~-3-5-7-0~-3-5-7-9-11-0~-l
-3-5-7-0~-3-5-7-0~-3-5-7-9-11-0~-l
-3-5-7-0~-3-5-7-0~-3-5-7-9-11-0~-l

Intro
-------0-------0-------3-------3-------0-------0-------5-------5-
-----0-------0-------3-------3-------0-------0-------5-------5---
---0-------0-------3-------3-------0-------0-------5-------5-----
-0-------0-------3-------3-------0-------0-------5-------5-------

--------------------------------------------------l
-------0-------0-------2-------3-------1-------2~-l
-----0-------0-------2-------3-------1-------2----l
---0-------0-------2-------3-------1-------2------l
-0-------0-------2-------3-------1-------2--------l
--------------------------------------------------l

-0-l
-0-l
-0-l
-0-l
-0-l
-0-l

Bridge
----------l
----------l
----------l
-3-5-7-0~-l
-3-5-7-0~-l
-3-5-7-0~-l
            
Tabs too difficult? Try these video lessons and learn fast.




comments powered by Disqus
↑ Back to top | Tablatures and chords are parodies/interpretations of the original songs. You may use it for private study, scholarship, research or language learning purposes only