» » »

Fallacy, A Stigma Reborn Tabs (ver.1)

Artists:  A B C D E F G H I J K L M N O P Q R S T U V W X Y Z # 

A Stigma Reborn Tabs (ver.1)

Fallacy Tabs
 Rating:
4/5 (4 votes)
A Stigma Reborn lessons Tabs too difficult? Try these video lessons and learn fast
1
                ~Fallacy~

Intro
(F-A) Strum
 F:  A:
-0-l-0-l
-0-l-2-l
-2-l-2-l
-3-l-2-l
-3-l-0-l
-1-l-0-l

Verse
---------------------------------
-------------------------2-------
---------2-----------2-----2-----
-----3-----3-------2---2-----2---
---3---3-----3---0-------------0-
-1-------------1-----------------

Bridge
------------------------------------------------l
------------------------------------------------l
------------------------------------------------l
------------------------------------------------l
-2-2-3-3-7-7-7-77-7-2-2-3-3-5-5-7-7-7-7-7-7-7-7-l
-0-0-1-1-5-5-5-55-5-0-0-1-1-3-3-5-5-5-5-5-5-5-5-l

Course
---------------------------
---------------------------
---------------------------
---------------------------
-3-3-3-33-3-3-7-7-7-77-7-7-
-1-1-1-11-1-1-5-5-5-55-5-5-

Bridge
------------------------------------------------l
------------------------------------------------l
------------------------------------------------l
------------------------------------------------l
-2-2-3-3-7-7-7-77-7-2-2-3-3-5-5-7-7-7-7-7-7-7-7-l
-0-0-1-1-5-5-5-55-5-0-0-1-1-3-3-5-5-5-5-5-5-5-5-l

Verse
---------------------------------
-------------------------2-------
---------2-----------2-----2-----
-----3-----3-------2---2-----2---
---3---3-----3---0-------------0-
-1-------------1-----------------

Bridge
------------------------------------------------l
------------------------------------------------l
------------------------------------------------l
------------------------------------------------l
-2-2-3-3-7-7-7-77-7-2-2-3-3-5-5-7-7-7-7-7-7-7-7-l
-0-0-1-1-5-5-5-55-5-0-0-1-1-3-3-5-5-5-5-5-5-5-5-l

Course
---------------------------
---------------------------
---------------------------
---------------------------
-3-3-3-33-3-3-7-7-7-77-7-7-
-1-1-1-11-1-1-5-5-5-55-5-5-

Bridge
------------------------------------------------l
------------------------------------------------l
------------------------------------------------l
------------------------------------------------l
-2-2-3-3-7-7-7-77-7-2-2-3-3-5-5-7-7-7-7-7-7-7-7-l
-0-0-1-1-5-5-5-55-5-0-0-1-1-3-3-5-5-5-5-5-5-5-5-l

-------l
-------l
-------l
-------l
-33-22-l
-11-00-l

Solo x2
-----------------------------------------
-----------------------------------------
-------2---------3---------7---------7---
-----2---2-----3---3-----7---7-----7---7-
---2---------3---------7---------7-------
-0---------1---------5---------5---------

---------------------------------x3----------------------------------x2-
-------0-------0-------0-------0----------0-------0-------0--------0----
-----3-------3-------7-------7----------3-------3-------9-------9-------
---1-------1-------5-------5----------1-------1-------7-------7---------
-0-------0-------0-------0----------0-------0-------0-------0-----------

-------l
-------l
-------l
-------l
-33-22-l
-11-00-l

Course
---------------------------
---------------------------
---------------------------
---------------------------
-3-3-3-33-3-3-7-7-7-77-7-7-
-1-1-1-11-1-1-5-5-5-55-5-5-

Bridge
------------------------------------------------l
------------------------------------------------l
------------------------------------------------l
------------------------------------------------l
-2-2-3-3-7-7-7-77-7-2-2-3-3-5-5-7-7-7-7-7-7-7-7-l
-0-0-1-1-5-5-5-55-5-0-0-1-1-3-3-5-5-5-5-5-5-5-5-l

Verse
---------------------------------l
-------------------------2-------l
---------2-----------2-----2-----l
-----3-----3-------2---2-----2---l
---3---3-----3---0-------------0-l
-1-------------1-----------------l
            
Submit corrections

comments powered by Disqus
↑ Back to top | Fallacy Tabs for A Stigma Reborn. Lyrics for acoustic guitar and electric guitar. 1 Tablatures and chords are parodies/interpretations of the original songs. You may use it for private study, scholarship, research or language learning purposes only