» » »

Fallacy, Ash-Trey Tabs (ver.1)

Artists:  A B C D E F G H I J K L M N O P Q R S T U V W X Y Z # 

Ash-Trey Tabs (ver.1)

Fallacy Tabs
 Rating:
4/5 (4 votes)
Ash-Trey lessons Tabs too difficult? Try these video lessons and learn fast
                ~Fallacy~

Chords: (C-Am-Em)
C:  Am: Em: 
-0-l-0-l-0-l
-1-l-1-l-0-l
-0-l-2-l-0-l
-2-l-2-l-2-l
-3-l-0-l-2-l
-0-l-0-l-0-l

Intro/Verse
---------1---------------1---------------------------------------l
-----0-----0---0-----2-----2---2---------0---------------0-------l
---2---2-----2-----2---2-----2-------2-----2---2-----2-----2-----l
-3---------------0-----------------2---2-----2-----2---2-----2---l
---------------------------------0---------------0-------------0-l

Course
C-Am-Em

Intro/Verse
---------1---------------1---------------------------------------l
-----0-----0---0-----2-----2---2---------0---------------0-------l
---2---2-----2-----2---2-----2-------2-----2---2-----2-----2-----l
-3---------------0-----------------2---2-----2-----2---2-----2---l
---------------------------------0---------------0-------------0-l

Course
C-Am-Em

Intro/Verse
---------1---------------1---------------------------------------l
-----0-----0---0-----2-----2---2---------0---------------0-------l
---2---2-----2-----2---2-----2-------2-----2---2-----2-----2-----l
-3---------------0-----------------2---2-----2-----2---2-----2---l
---------------------------------0---------------0-------------0-l

Interlude
--------------------------
--------------------------
--------------------------
-5-5-5-2-2-2--------------
-3-3-3-0-0-0-2-2-2--2-2-2-
-------------0-0-0--0-0-0-

Intro/Verse
---------1---------------1---------------------------------------l
-----0-----0---0-----2-----2---2---------0---------------0-------l
---2---2-----2-----2---2-----2-------2-----2---2-----2-----2-----l
-3---------------0-----------------2---2-----2-----2---2-----2---l
---------------------------------0---------------0-------------0-l

Course
C-Am-Em

Interlude
--------------------------
--------------------------
--------------------------
-5-5-5-2-2-2--------------
-3-3-3-0-0-0-2-2-2--2-2-2-
-------------0-0-0--0-0-0-

Solo
----------------------------------------------------l
----------------------------------------------------l
-/15-17-15-12-14-12-------------------14------------l
--------------------12-14-12-12-14-12----12-14-12-\-l
----------------------------------------------------l
----------------------------------------------------l

Interlude
--------------------------
--------------------------
--------------------------
-5-5-5-2-2-2--------------
-3-3-3-0-0-0-2-2-2--2-2-2-
-------------0-0-0--0-0-0-

Intro/Verse
---------1---------------1---------------------------------------l
-----0-----0---0-----2-----2---2---------0---------------0-------l
---2---2-----2-----2---2-----2-------2-----2---2-----2-----2-----l
-3---------------0-----------------2---2-----2-----2---2-----2---l
---------------------------------0---------------0-------------0-l

End On
-0-l
-1-l
-0-l
-2-l
-3-l
-0-l
            
Submit corrections

comments powered by Disqus
↑ Back to top | Fallacy Tabs for Ash-Trey. Lyrics for acoustic guitar and electric guitar. Tablatures and chords are parodies/interpretations of the original songs. You may use it for private study, scholarship, research or language learning purposes only