>
 >
Enter The Glade

Enter The Glade Guitar Tabs

Falconer - Enter The Glade chords, tabs, tablatures, lyrics

Guitar lessons | Add/correct | Request | Top 50 tabs Artists:  A B C D E F G H I J K L M N O P Q R S T U V W X Y Z 0-9

Enter The Glade Guitar Tabs – Falconer

CD, Sheet music, Poster

Do you like Enter The Glade? Share with your friends now
Tabs

ENTER THE GLADE
As recorded by FALCONER
(From the 2002 Album CHAPTERS FROM THE VALE FORLORN)

	

Words and Music by Falconer
Arranged by FALCONER

Asus4
5 5 7 x x x
	
Bsus4
7 7 9 x x x
	
E/Ab
x x 6 9 x x
	
G
x x 5 4 x x

G#m
x x 6 4 x x
	
Bbsus4
6 6 8 x x x

Gtr I (E A D G B E) - 'Untitled'
Gtr II (E A D G B E) - 'Untitled'

 Intro
  Fast Rock Q=190
  N.C.
 4/4
  Gtr I
                               ~
  E E  E E E  E E E    E E E E H
|-------------------|---------------|
|-------------------|---------------|
|-9-7------7--------|---------------|
|-----10-9---10-9-7-|-10-9-7-6------|
|-------------------|----------7----|
|-------------------|---------------|
|
| Gtr II
|                              ~
| E E  E E E  E E E    E E E E H
|-------------------|---------------|
|-------------------|---------------|
|-9-7------7--------|---------------|
|-----10-9---10-9-7-|-10-9-7-6-9----|
|-------------------|---------------|
|-------------------|---------------|


 Verse
  $
  N.C.                                   F5   G5   A5            F5
  Gtrs I, II
  PM|   PM    PM
  E E E E E E E E   +E  E E E Q    E E   H    Q.   E   +E  E E E E E Q
|-----------------|--------------------|-------------|------------------|
|-----------------|--------------------|-------------|------------------|
|-----------------|---------5-5b7r=====|=============|===========5-5----|
|-----7---5-7---7-|-(7)-5-7--------7-5-|-----------2-|-(2)-2-2-2-3-3----|
|-0-0---0-----0---|--------------------|-3----5----0-|-(0)-0-0-0--------|
|-----------------|--------------------|-1----3------|------------------|


  N.C.
                                            PM|   PM
  E E E E E E E E     +E  E E E E   E E E   E E E E E E E E   E E E E E E E E
|-------------------|---------------------|-----------------|-----------------|
|-------------------|-----5-8-5-----5-----|-----------------|-----------------|
|-0-0-7-0-5-7-0-7b9-|-(7)-------7b9---7-5-|-----------------|-----------------|
|-------------------|---------------------|-----7---5-7-----|-5-----5---------|
|-------------------|---------------------|-0-0---0-----6-7-|---6-7---7-6-5---|
|-------------------|---------------------|-----------------|---------------8-|


                                         F5   G5   A5            B5
  PM|   PM    PM
  E E E E E E E E   +E  E E E Q    E E   H    Q.   E   +E  E E E E E Q
|-----------------|--------------------|-------------|------------------|
|-----------------|--------------------|-------------|------------------|
|-----------------|---------5-5b7r=====|=============|==================|
|-----7---5-7---7-|-(7)-5-7--------7-5-|-----------2-|-(2)-2-2-2-4-4----|
|-0-0---0-----0---|--------------------|-3----5----0-|-(0)-0-0-0-2-2----|
|-----------------|--------------------|-1----3------|------------------|


  C5                G5                D5                E5
  E E E E E E E E   E E E E E E E E   E E E E E E E E   E E E E E E E E
|-----------------|-----------------|-----------------|-----------------|
|-----------------|-----------------|-----------------|-----------------|
|-----------------|-----------------|-----------------|-----------------|
|-5-5-5-5-5-5-5-5-|-----------------|-7-7-7-7-7-7-7-7-|-9-9-9-9-9-9-9-9-|
|-3-3-3-3-3-3-3-3-|-5-5-5-5-5-5-5-5-|-5-5-5-5-5-5-5-5-|-7-7-7-7-7-7-7-7-|
|-----------------|-3-3-3-3-3-3-3-3-|-----------------|-----------------|


 Pre-Chorus
  Bbsus4     Bsus4    Bbsus4 Csus4 Dsus4       G5         Csus4
  W           Q   +E  Q  +E   Q     H     +Q   E E   H     H
|----------|---------------------|-----------------|------------|
|----------|---------------------|-----------------|------------|
|----------|---------------------|-----------------|------------|
|-8--------|-10--(10)-8--(8)-10--|-12----(12)------|------10----|
|-6--------|--8---(8)-6--(6)--8--|-10----(10)--5-5-|-5-----8----|
|-6--------|--8---(8)-6--(6)--8--|-10----(10)--3-3-|-3-----8----|


  Bbsus4     Csus4       Asus4         Bsus4
  W           W          Q  Q  Q  Q    E E E E Q  Q
|----------|-----------|-------------|---------------|
|----------|-----------|-------------|---------------|
|----------|-----------|-------------|---------------|
|-8--------|-10--------|-7--7--7--7--|-9-9-9-9-9-----|
|-6--------|--8--------|-5--5--5--5--|-7-7-7-7-7-----|
|-6--------|--8--------|-5--5--5--5--|-7-7-7-7-7-----|


 Chorus
  A5              E5              D5     E5       A5     B5
  E E E E Q  Q    E E E E Q  Q    E E Q  E E Q    H    E Q  +E
|---------------|---------------|---------------|---------------|
|---------------|---------------|---------------|---------------|
|---------------|---------------|---------------|---------------|
|-2-2-2-2-2-----|-9-9-9-9-9-----|-7-7-7--9-9-9--|-2----2-4--(4)-|
|-0-0-0-0-0-----|-7-7-7-7-7-----|-5-5-5--7-7-7--|-0----0-2--(2)-|
|---------------|---------------|---------------|---------------|


                                    To Coda
  C5             G5             E5   D5E5     F5   G5
  Gtr I
     PM     ~       PM     ~
  Q  Q  E E Q    Q  Q  E E Q    H    E E Q    H    H
|--------------|--------------|-------------|------------|
|--------------|--------------|-------------|------------|
|--------------|--------------|-------------|------------|
|-5--5--5-3-2--|--------------|------7h9-9--|------------|
|-3--3---------|-5--5--5-3-2--|-2----5h7-7--|-3----5-----|
|--------------|-3--3---------|-0-----------|-1----3-----|
|
| Gtr II
|    PM     ~       PM     ~                          ~
| Q  Q  E E Q    Q  Q  E E Q    H    E E Q    H    Q  Q
|--------------|--------------|-------------|------------|
|--------------|--------------|-------------|------------|
|--------------|--------------|-------------|------------|
|-5--5--5-3-2--|--------------|------7h9-9--|------------|
|-3--3---------|-5--5--5-3-2--|-2----5h7-7--|-3----5--7--|
|--------------|-3--3---------|-0-----------|-1----3-----|


 Interlude 1
  $$
  A5                 E/Ab             A5                   E5
  W                  W                W                    H        +E  E  E E
|------------------|----------------|--------------------|---------------------|
|------------------|----------------|--------------------|---------------------|
|------------------|-9--------------|--------------------|---------------------|
|-2----------------|-6--------------|-2------------------|---------------------|
|-0----------------|----------------|-0------------------|-2--------(2)-7--5-3-|
|------------------|----------------|--------------------|-0--------(0)--------|
|
| ~~~~~~~                             ~~~~~~~
| Q  +E  E E E E E   E E E Q  E E E   Q  +E   E E E  E E   E  E E Q     E  E E
|------------------|----------------|--------------------|---------------------|
|------------------|----------------|--------10----------|---10----------------|
|------------5-----|-------5--7-8---|-9--(9)----9-7----7-|-9------9-----7------|
|-7--(7)-6-7---9-7-|-6-9------------|---------------10---|----------------10-9-|
|------------------|----------------|--------------------|---------------------|
|------------------|----------------|--------------------|---------------------|


  N.C.              C5
  E E E E E E E E    W
|-----------------|----------------------|
|-----------------|----------------------|
|-----------------|----------------------|
|-----------------|----------------------|
|-----------------|----------------------|
|-5-4-0-4-7-4-5-7-|--8-------------------|
|
|                    ~~~~~~~~
| E E E E E E E E    Q   +E   E E  E  Q
|-----------------|----------------------|
|-----------------|----------10----------|
|-----------------|-------------9--------|
|-7-6---6-9-6-7-9-|-10--(10)------10-----|
|-----7-----------|------------------12--|
|-----------------|----------------------|


  D5       E5          N.C.             A5  E5
   E E E E H            E  E  S  S  S S  Q  Q
|--------------------|---------------------------|
|--------------------|---------------------------|
|--------------------|---------------------------|
|--7-7-7---9---------|---------------------------|
|--5-5-5---7---------|-------------------7--2----|
|--------------------|--8--7--5--7--5-4--5--0----|
|
|          ~~~~~~                        ~~~~~
|  E E E E E +Q    E    E  E  S  S  S S  Q  Q
|--------------------|---------------------------|
|----------9-(9)--10-|-13-12-10-12-10-9-10-------|
|------9-------------|---------------------------|
|----9---------------|---------------------------|
|-11-----------------|----------------------7----|
|--------------------|---------------------------|


  A5                 E/Ab             A5                   E5
  W                  W                W                    W
|------------------|----------------|--------------------|------------------|
|------------------|----------------|--------------------|------------------|
|------------------|-9--------------|--------------------|------------------|
|-2----------------|-6--------------|-2------------------|------------------|
|-0----------------|----------------|-0------------------|-2----------------|
|------------------|----------------|--------------------|-0----------------|
|
| ~                                   ~~~~~~~
| Q  +E  E E E E E   E E E Q  E E E   Q  +E   E E E  E E   E  E E Q  E  E E
|------------------|----------------|--------------------|------------------|
|------------------|----------------|--------10----------|---10-------------|
|------------5-----|-------5--7-8---|-9--(9)----9-7----7-|-9------9--7------|
|-7--(7)-6-7---9-7-|-6-9------------|---------------10---|-------------10-9-|
|------------------|----------------|--------------------|------------------|
|------------------|----------------|--------------------|------------------|


  A5                   N.C.
  W                    E   E E   E +H
|--------------------|----------------------|
|--------------------|----------------------|
|--------------------|----------------------|
|-2------------------|----------------------|
|-0------------------|-3b4-0----------------|
|--------------------|-------3b4-0-(0)------|
|
| ~~~~~~~
| Q  +E  E E   E E E   E   E E   Q     E Q
|--------------------|----------------------|
|--------------------|----------------------|
|--------5-7b9r5-----|-7---5-7---9-----5-4--|
|-7--(7)---------7-5-|----------------------|
|--------------------|----------------------|
|--------------------|----------------------|


                                   D.S. al Coda
                                   D.S. al Coda
  F5          G5            G             G#m
  H           H             H             H
|-------------------------|---------------------|
|-------------------------|---------------------|
|-------------------------|-4-------------4-----|
|-------------------------|-5-------------6-----|
|-3-----------5-----------|---------------------|
|-1-----------3-----------|---------------------|
|
|                                         ~~~~~
| |-3-| |-3-| |-3-| |-3-|   |-3--| |-3--|
| E E E E E E E E E E E E   E E  E E E  E Q  Q
|-------------------------|---------------------|
|-8-6-5-------------------|---------------8--9--|
|-------7-5-4-9-7-5-------|--------7-9-10-------|
|-------------------9-7-6-|-7-9-10--------------|
|-------------------------|---------------------|
|-------------------------|---------------------|


  &
  N.C.               A5
  Gtrs I, II
  E E E E  E E E E   E E E E Q  Q
|------------------|---------------|
|-------6--------8-|---------------|
|-----5--------7---|---------------|
|---7--------9-----|-2-2-2-2-2-----|
|-8-------10-------|-0-0-0-0-0-----|
|------------------|---------------|


  E5              D5     E5       A5     B5
  E E E E Q  Q    E E Q  E E Q    H    E Q  +E
|---------------|---------------|---------------|
|---------------|---------------|---------------|
|---------------|---------------|---------------|
|-9-9-9-9-9-----|-7-7-7--9-9-9--|-2----2-4--(4)-|
|-7-7-7-7-7-----|-5-5-5--7-7-7--|-0----0-2--(2)-|
|---------------|---------------|---------------|


  C5             G5             E5   D5E5     F5   G5
     PM     ~       PM     ~
  Q  Q  E E Q    Q  Q  E E Q    H    E E Q    H    H
|--------------|--------------|-------------|-----------|
|--------------|--------------|-------------|-----------|
|--------------|--------------|-------------|-----------|
|-5--5--5-3-2--|--------------|------7h9-9--|-----------|
|-3--3---------|-5--5--5-3-2--|-2----5h7-7--|-3----5----|
|--------------|-3--3---------|-0-----------|-1----3----|


 Interlude 2
  F5         G5          A5
  Gtr I
          ~~        ~
   |-3-|     |-3--|
   E E E  Q  E E  E Q     Q  E H     E
|----------------------|---------------|
|----------------------|---------------|
|-10-9-7-----9-7-------|---------------|
|--------10------10-9--|-10--7---------|
|----------------------|---------------|
|----------------------|---------------|
|
| Gtr II
|  H         H            Q  E E H
|----------------------|---------------|
|----------------------|---------------|
|----------------------|---------------|
|----------------------|---------------|
|--3---------5---------|--7--7---------|
|--1---------3---------|--5--5---------|


  F5         G5                E5
          ~~                   ~~~~~~~~~
   |-3-|     |--3--| |--3--|
   E E E  Q  E  E  E E  E  E   H    +E  Q.
|----------------------------|----------------|
|----------------------------|----------------|
|-10-9-7-------------9-10-12-|-9----(9)-------|
|--------10------------------|----------------|
|------------8-10-12---------|----------------|
|----------------------------|----------------|
|
|  H         H                 W
|----------------------------|----------------|
|----------------------------|----------------|
|----------------------------|----------------|
|----------------------------|----------------|
|--3---------5---------------|-2--------------|
|--1---------3---------------|-0--------------|


  F5         G5          A5
          ~~        ~
   |-3-|     |-3--|
   E E E  Q  E E  E Q     Q  E H    E
|----------------------|--------------|
|----------------------|--------------|
|-10-9-7-----9-7-------|--------------|
|--------10------10-9--|-10--7--------|
|----------------------|--------------|
|----------------------|--------------|
|
|         ~~        ~
|  |-3-|     |-3--|
|  E E E  Q  E E  E Q     Q  E H    E
|----------------------|--------------|
|-10-8-6-----8-6-------|--------------|
|---------9-------9-7--|--9--5--------|
|----------------------|--------------|
|----------------------|--------------|
|----------------------|--------------|


  F5         G5                E5
          ~~                    ~~~~~~~~~~
   |-3-|     |--3--| |--3--|
   E E E  Q  E  E  E E  E  E    H     +Q    S  S  S  S
|----------------------------|---------------------------|
|----------------------------|-------------12-13p12p10---|
|-10-9-7-------------9-10-12-|--9-----(9)----------------|
|--------10------------------|---------------------------|
|------------8-10-12---------|---------------------------|
|----------------------------|---------------------------|
|
|         ~~                    ~~~~~~~~~~
|  |-3-|     |--3--| |--3--|
|  E E E  Q  E  E  E E  E  E    H     +Q    S  S  S  S
|----------------------------|---------------------------|
|-10-8-6---------------------|---------------------------|
|---------9----------7--9-10-|-14----(14)--13-14p13p11---|
|------------7--9-10---------|---------------------------|
|----------------------------|---------------------------|
|----------------------------|---------------------------|


   ~~~~~~~~
   H     Q  Q     E  E E  E E  E E  E    H     +H
|-12-----------|----------------------|----------------|
|-------12-----|-17-17---17---17---15-|-17----(17)\----|
|--------------|----------------------|----------------|
|--------------|----------------------|----------------|
|--------------|----------------------|----------------|
|--------------|----------------------|----------------|
|
|  ~~~~~~~~
|  H     H        E  E E  E E  E E  E    H     +H
|--------------|----------------------|----------------|
|--------------|----------------------|----------------|
|-13-----9-----|-14-14---14---14---12-|-14----(14)\----|
|--------------|----------------------|----------------|
|--------------|----------------------|----------------|
|--------------|----------------------|----------------|


 Bridge
  D5                              C5   F5   A5
  Gtrs I, II
  Q  E E Q  E E   Q  E E Q  E E   E Q  E Q  Q    +Q   Q  E Q.
|---------------|---------------|--------------|----------------|
|---------------|---------------|--------------|----------------|
|---------------|---------------|--------------|----------------|
|-7--7-7-7--7-7-|-7--7-7-7--7-7-|-5---------2--|-(2)--2--2------|
|-5--5-5-5--5-5-|-5--5-5-5--5-5-|-3----3----0--|-(0)--0--0------|
|---------------|---------------|------1-------|----------------|


  D5                              E5   F5    E5       N.C.
  E E Q  E E Q    E E Q  E E Q    E Q   E Q  Q    +E   E E E  E E E  E
|---------------|---------------|---------------|----------------------|
|---------------|---------------|---------------|----------------------|
|---------------|---------------|---------------|-----10-9-7-----------|
|-7-7----7-7----|-7-7----7-7----|-9----10----9--|-(9)--------10-9-7----|
|-5-5----5-5----|-5-5----5-5----|-7-----8----7--|-(7)---------------10-|
|---------------|---------------|---------------|----------------------|


  D5                      C5   F5   A5
  W          +W           E Q  E Q  Q    +Q   Q  E Q.
|----------|------------|--------------|----------------|
|----------|------------|--------------|----------------|
|----------|------------|--------------|----------------|
|-7--------|-(7)--------|-5---------2--|-(2)--2--2------|
|-5--------|-(5)--------|-3----3----0--|-(0)--0--0------|
|----------|------------|------1-------|----------------|


  C5             D5             B5   Eb5  E5
  E E E E H      E E E E H      E Q  E Q  Q    +Q   Q  E Q.
|--------------|--------------|--------------|----------------|
|--------------|--------------|--------------|----------------|
|--------------|--------------|--------------|----------------|
|-5-5-5--------|-7-7-7--------|-4----8----9--|-(9)--9--9------|
|-3-3-3--------|-5-5-5--------|-2----6----7--|-(7)--7--7------|
|--------------|--------------|--------------|----------------|


   Chorus
    A5              E5              D5     E5       A5     B5
    E E E E Q  Q    E E E E Q  Q    E E Q  E E Q    H    E Q  +E
||----------------|---------------|---------------|----------------|
||o---------------|---------------|---------------|----------------|
||----------------|---------------|---------------|----------------|
||--2-2-2-2-2-----|-9-9-9-9-9-----|-7-7-7--9-9-9--|-2----2-4--(4)--|
||o-0-0-0-0-0-----|-7-7-7-7-7-----|-5-5-5--7-7-7--|-0----0-2--(2)--|
||----------------|---------------|---------------|----------------|


  C5             G5             E5   D5E5     N.C.
     PM     ~       PM     ~
  Q  Q  E E Q    Q  Q  E E Q    H    E E Q    E E E E  E E E E
|--------------|--------------|-------------|------------------|
|--------------|--------------|-------------|-------6--------8-|
|--------------|--------------|-------------|-----5--------7---|
|-5--5--5-3-2--|--------------|------7h9-9--|---7--------9-----|
|-3--3---------|-5--5--5-3-2--|-2----5h7-7--|-8-------10-------|
|--------------|-3--3---------|-0-----------|------------------|


  A5              E5              D5     E5       A5     B5
  E E E E Q  Q    E E E E Q  Q    E E Q  E E Q    H    E Q  +E
|---------------|---------------|---------------|---------------|
|---------------|---------------|---------------|---------------|
|---------------|---------------|---------------|---------------|
|-2-2-2-2-2-----|-9-9-9-9-9-----|-7-7-7--9-9-9--|-2----2-4--(4)-|
|-0-0-0-0-0-----|-7-7-7-7-7-----|-5-5-5--7-7-7--|-0----0-2--(2)-|
|---------------|---------------|---------------|---------------|


                                             1.             2.
                                                D.S.S. al Dbl. Coda
  C5             G5             E5   D5E5     F5   G5       F5   G5
  Gtr I
     PM     ~       PM     ~
  Q  Q  E E Q    Q  Q  E E Q    H    E E Q    H    H        H    H
|--------------|--------------|-------------|------------||------------|
|--------------|--------------|-------------|-----------o||------------|
|--------------|--------------|-------------|------------||------------|
|-5--5--5-3-2--|--------------|------7h9-9--|------------||------------|
|-3--3---------|-5--5--5-3-2--|-2----5h7-7--|-3----5----o||-3----5-----|
|--------------|-3--3---------|-0-----------|-1----3-----||-1----3-----|
|
| Gtr II
|    PM     ~       PM     ~                                        ~
| Q  Q  E E Q    Q  Q  E E Q    H    E E Q    H    H        H    Q  Q
|--------------|--------------|-------------|------------||------------|
|--------------|--------------|-------------|-----------o||------------|
|--------------|--------------|-------------|------------||------------|
|-5--5--5-3-2--|--------------|------7h9-9--|------------||------------|
|-3--3---------|-5--5--5-3-2--|-2----5h7-7--|-3----5----o||-3----5--7--|
|--------------|-3--3---------|-0-----------|-1----3-----||-1----3-----|


 Outro
  &&
  G#m                   G#m
  W                      W
|---------------------|---------------------------|
|---------------------|---------------------------|
|-4-------------------|--4------------------------|
|-6-------------------|--6------------------------|
|---------------------|---------------------------|
|---------------------|---------------------------|
|
|               ~~~~~                      ~~~~~~
| |-3--| |-3--|          |--3--|  |--3--|
| E E  E E E  E Q  Q     E  E  E  E  E  E  Q   Q
|---------------------|----------10-12-13-15--16--|
|---------------8--9--|-10-12-13------------------|
|--------7-9-10-------|---------------------------|
|-7-9-10--------------|---------------------------|
|---------------------|---------------------------|
|---------------------|---------------------------|


  A5              E5      D5    E5    A5
   H              H       Q     Q      Q  E E
|-----------------------|----------------------|
|-----------------------|----------------------|
|-----------------------|----------------------|
|--2--------------9-----|-7-----9------2--2----|
|--0--------------7-----|-5-----7------0--0----|
|-----------------------|----------------------|
|
|                 ~~~~~
|  |--3--|  |-3-|         |-3-| |-3-|
|  E  E  E  E E E Q  Q    E E E E E E  Q  E E
|-----------------------|----------------------|
|-----------------------|----------------------|
|-----------------9-----|----------------------|
|-10-10-10-10-9-7----9--|-7-7-7-9-7-9-10--7----|
|-----------------------|----------------------|
|-----------------------|----------------------|


 3/4
  Q    Q  E E   Q    Q  E E   Q    Q  E E   Q    Q  E E
|-------------|-------------|-------------|-------------|
|-------------|-------------|-------------|-------------|
|-------------|-------------|-------------|-------------|
|------2--2---|------2--2---|------2--2---|------2--2---|
|------0--0---|------0--0---|------0--0---|------0--0---|
|-------------|-------------|-------------|-------------|
|
| |3|           |3|           |3|           |3|
| Q E  Q  E E   Q E  Q  E E   Q E  Q  E E   Q E  Q  E E
|-------------|-------------|-------------|-------------|
|-------------|-------------|-------------|-------------|
|-------------|-------------|-------------|-------------|
|---9-10--7---|---9-10--7---|---9-10--7---|---9-10--7---|
|-------------|-------------|-------------|-------------|
|-------------|-------------|-------------|-------------|


  H    Q    H    Q    Q    Q  E E
|---------|---------|-------------*|
|---------|---------|-------------*|
|---------|---------|-------------*|
|---------|---------|------2--2---*|
|---------|---------|------0--0---*|
|---------|---------|-------------*|
|
|                     |3|
| H    Q    H    Q    Q E  Q  E E
|---------|---------|-------------*|
|---------|---------|-------------*|
|---------|---------|-------------*|
|---------|---------|---9-10--7---*|
|---------|---------|-------------*|
|---------|---------|-------------*|



Duration Legend
---------------
W - whole; H - half; Q - quarter; E - 8th; S - 16th; T - 32nd; X - 64th; a - acciaccatura
+ - note tied to previous; . - note dotted; .. - note double dotted
Uncapitalized letters represent notes that are staccato (1/2 duration)
Irregular groupings are notated above the duration line
Duration letters will always appear directly above the note/fret number it represents the
duration for.  Duration letters with no fret number below them represent rests.  Multi-
bar rests are notated in the form Wxn, where n is the number of bars to rest for.  Low
melody durations appear below the staff

Tablature Legend
----------------
 h   - hammer-on
 p   - pull-off
 b   - bend
 pb  - pre-bend
 r   - bend release (if no number after the r, then release immediately)
 /\  - slide into or out of (from/to "nowhere")
 s   - legato slide
 S   - shift slide
 - natural harmonic
[n]  - artificial harmonic
n(n) - tapped harmonic
 ~   - vibrato
 tr  - trill
 T   - tap
 TP  - trem. picking
 PM  - palm muting
\n/  - tremolo bar dip; n = amount to dip
 \n  - tremolo bar down
 n/  - tremolo bar up
/n\  - tremolo bar inverted dip
 =   - hold bend; also acts as connecting device for hammers/pulls
 <> - volume swell (louder/softer)
 x   - on rhythm slash represents muted slash
 o   - on rhythm slash represents single note slash

Misc Legend
-----------
 |  - bar
||  - double bar
||o - repeat start
o|| - repeat end
*|  - double bar (ending)
 :  - bar (freetime)
 $  - Segno
 &  - Coda
Tempo markers -  = BPM(8/16=s8/s16), where s8 = swing 8ths, s16 = swing 16ths





Comments


Popular Falconer tabs & chords
Catch The Rainbow Chords
Himmel Sa Trind Chords
Long Gone By Chords
Clarion Call Tabs
Mindtraveller Tabs
Upon The Grave Of Guilt Tabs
Upon The Grave Of Guilt 1 Tabs
Upon The Grave Of Guilt 2 Tabs
Catch The Rainbow Ukulele
Long Gone By Ukulele


Song lyrics



↑ Back to top | Tablatures and chords are parodies/interpretations of the original songs. You may use it for private study, scholarship, research or language learning purposes only
© 2014 AZChords.com Contact us | Privacy policy | DMCA | Add/correct tabs | Request tabs | Top 50 tabs