» » »

Faktion, Take It All Away Tabs (ver.1)

Artists:  A B C D E F G H I J K L M N O P Q R S T U V W X Y Z # 

Take It All Away Tabs (ver.1)

Faktion Tabs
 Rating:
4.4/5 (7 votes)
Take It All Away lessons Tabs too difficult? Try these video lessons and learn fast
1
                
                        "Take It All Away"
                             Faktion

                   half-step down tuning, drop d


intro/verse     pull slider closest to you so it comes out on closest-
to-neck pickup/

these are the notes without the strumming pattern, it's not too hard to
figure out.

Eb --------------------------------------------------------------------|
Bb --------------------------------------------------------------------|
Gb -2---2/3---5--3--3/2------------------------------------------------|
Db -----------------------5---3---2------------------------------------|
Ab --------------------------------------------------------------------|
Db --------------------------------------------------------------------|

Pre-Chorus

push slider farthest away from you

Eb --------------------------------------------------------------------|
Bb --------------------------------------------------------------------|
Gb --------------------------------------------------------------------|
Db --0--0--0-0h5---0--0--0-5p3----0--0--0-0h5---0--5--3--2-------------|
Ab --0--0--0-0h5---0--0--0-5p3----0--0--0-0h5---0--5--3--2-------------|
Db --0--0--0-0h5---0--0--0-5p3----0--0--0-0h5---0--5--3--2-------------|
           *             *               *

Eb --------------------------------------------------------------------|
Bb --------------------------------------------------------------------|
Gb --------------------------------------------------------------------|
Db --0--0--0-0h5---0--0--0-5p3----0--0--0-0h5---0--2--3--5-------------|
Ab --0--0--0-0h5---0--0--0-5p3----0--0--0-0h5---0--2--3--5-------------|
Db --0--0--0-0h5---0--0--0-5p3----0--0--0-0h5---0--2--3--5-------------|
           *             *              *

Chorus

Eb --------------------------------------------------------------------|
Bb --------------------------------------------------------------------|
Gb ------------------3-------------------------------------------------|
Db ---0----3----5----3----(x2)---------0-------------------------------|
Ab ---0----3----5----1-----------------0-------------------------------|
Db ---0----3----5----------------------0-------------------------------|
                                        (let ring)


What I could get of bridge/solo

(pre-chorus played during this part)

Eb ----------I---------------------------------------------------------|
Bb ---20b22--I--20b22---20b22---20b22v---18b20---18b20---18b20v--------|
Gb ----------I---------------------------------------------------------|
Db ----------I---------------------------------------------------------|
Ab ----------I---------------------------------------------------------|
Db ----------I---------------------------------------------------------|
     (1:57)     (2:6.5)


Eb --------------------------------------------------------------------|
Bb ---17b18---17b18---17b18v----19b21--18--17--15v---------------------|
Gb --------------------------------------------------------------------|
Db --------------------------------------------------------------------|
Ab --------------------------------------------------------------------|
Db --------------------------------------------------------------------|


Eb --------------------------------------------------------------------|
Bb ---19b22---15------19b22---15----18b19/-----------------------------|
Gb --------------------------------------------------------------------|
Db --------------------------------------------------------------------|
Ab --------------------------------------------------------------------|
Db --------------------------------------------------------------------|
      (2:22)

^^^^ 20b22 still works, i just play 19b22 for the hell of it, sounds a little cooler ^^^^

Rest of bridge

Eb --------------------------------------------------------------------|
Bb --------------------------------------------------------------------|
Gb ---------------------------------3----------------------------------|
Db ---0--0--0-3--3--0-5--5-5-----0--3--7--5--3-------------------------|
Ab ---0--0--0-3--3--0-5--5-5-----0--1--7--5--3-------------------------|
Db ---0--0--0-3--3--0-5--5-5-----0-----7--5--3-------------------------|
            *       *

Chorus

Done!


Sorry I couldn't get all of the solo, hope the rest is okay!
            
Submit corrections

comments powered by Disqus
↑ Back to top | Faktion Tabs for Take It All Away. Lyrics for acoustic guitar and electric guitar. 1 Tablatures and chords are parodies/interpretations of the original songs. You may use it for private study, scholarship, research or language learning purposes only