>
 >
Letting You Go

Letting You Go Guitar Tabs

Faktion - Letting You Go chords, tabs, tablatures, lyrics

Guitar lessons | Add/correct | Request | Top 50 tabs Artists:  A B C D E F G H I J K L M N O P Q R S T U V W X Y Z 0-9

Letting You Go Guitar Tabs – Faktion

CD, Sheet music, Poster

Do you like Letting You Go? Share with your friends now
Tabs
-------------------------------------------------------------------------------
-------------------------------------------------------------------------------

Tuning: Eb,Gb,Bb,Db,Ab,Eb

Intro/Verse:
eb|-----------------------------------------------|
Bb|-----------------7----7------------------------|
Gb|--------9-----9----------6----6--7----7--9-----|
Db|-----7--------------------------------------7--|
Ab|--5--------------------------------------------|
Db|-----------------------------------------------|

eb|------------------------------------------------|
Bb|-----------------7----7------------------10-----|
Gb|--------9-----9----------6----6--7----7------7--|
Db|-----7------------------------------------------|
Ab|--5---------------------------------------------|
Db|------------------------------------------------|

eb|------------------------------------------------------------------------|
Bb|--------10---------8------------5----------10---------8------------5----|
Gb|-----7--------7---------7----7-----7----7--------7---------7----7-----7-|
Db|--7---------------------------------------------------------------------|
Ab|------------------------------------------------------------------------|
Db|------------------------------------------------------------------------|

eb|-----------------------------------------------|
Bb|-----------------7----7------------------------|
Gb|--------9-----9----------6----6--7----7--9-----|
Db|-----7--------------------------------------7--|
Ab|--5--------------------------------------------|
Db|-----------------------------------------------|

eb|------------------------------------------------|
Bb|-----------------7----7------------------10-----|
Gb|--------9-----9----------6----6--7----7------7--|
Db|-----7------------------------------------------|
Ab|--5---------------------------------------------|
Db|------------------------------------------------|

eb|------------------------------------------------------------------------|
Bb|--------10---------8------------5----------10---------8------------5----|
Gb|-----7--------7---------7----7-----7----7--------7---------7----7-----7-|
Db|--7---------------------------------------------------------------------|
Ab|------------------------------------------------------------------------|
Db|------------------------------------------------------------------------|

eb|-----------------------------------------------|
Bb|-----------------7----7------------------------|
Gb|--------9-----9----------6----6--7----7--9-----|
Db|-----7--------------------------------------7--|
Ab|--5--------------------------------------------|
Db|-----------------------------------------------|






eb|------------------------------------------------|
Bb|-----------------7----7------------------10-----|
Gb|--------9-----9----------6----6--7----7------7--|
Db|-----7------------------------------------------|
Ab|--5---------------------------------------------|
Db|------------------------------------------------|

eb|------------------------------------------------------------------------|
Bb|--------10---------8------------5----------10---------8------------5----|
Gb|-----7--------7---------7----7-----7----7--------7---------7----7-----7-|
Db|--7---------------------------------------------------------------------|
Ab|------------------------------------------------------------------------|
Db|------------------------------------------------------------------------|


eb|------------------------------------------------------|
Bb|--------10-----------10-----------10-----------10-----|
Gb|-----9------9-----9------9-----9------9-----9------9--|
Db|--7------------7------------7------------7------------|
Ab|------------------------------------------------------|
Db|------------------------------------------------------|

eb|-----------------------------|
Bb|--------8-----------8-----8--|
Gb|-----7-----7-----7-----7--7--|
Db|--5-----------5-----------5--|
Ab|-----------------------------|
Db|-----------------------------|



Chorus:
eb|------------------------------------------------------------------------|
Bb|------------------------------------------------------------------------|
Gb|---------7----9----11---14------7----9----7------12--11---12----11---7--|
Db|--0---------------------------------------------------------------------|
Ab|--0------5----7----9----12------5----7----5------10--9----10----9----5--|
Db|--0---------------------------------------------------------------------|

eb|-----------------------------------------------------------------------|
Bb|-----------------------------------------------------------------------|
Gb|------7----9----11---14------7----9----11---7-----12--11-7--12----11-7-|
Db|-0---------------------------------------------------------------------|
Ab|-0----5----7----9----12------5----7----9----5-----10--9--5--10----9--5-|
Db|-0---------------------------------------------------------------------|

eb|----------------------------------------------|
Bb|----------------------------------------------|
Gb|----------------------------------------------|
Db|--0----X--X--0----X--X--0----X--X--0----X--X--|
Ab|--0----X--X--0----X--X--0----X--X--0----X--X--|
Db|--0----X--X--0----X--X-0----X--X--0----X--X--|

eb|--------------------------------------------------|
Bb|--3--3--------3--3--------3--3--------3--3--------|
Gb|--2--2--------2--2--------2--2--------2--2--------|
Db|--0--0--X--X--0--0--X--X--0--0--X--X--0--0--X--X--|
Ab|--0--0-X--X--0--0--X--X--0--0--X--X--0--0--X--X--|
Db|--0--0-X--X--0--0--X-X--0--0--X--X--0--0-X--X--|

eb|--------------------------------------|
Bb|--------------------------------------|
Gb|--9----11---7------------9----11---7--|
Db|--------------------------------------|
Ab|--7----9----5------------7----9----5--|
Db|--------------------------------------|

eb|----------------------------------------------|
Bb|----------------------------------------------|
Gb|----------------------------------------------|
Db|--0----X--X--0----X--X--0----X--X--0----X--X--|
Ab|--0----X--X--0----X--X--0----X--X--0----X--X--|
Db|--0----X--X--0----X--X-0----X--X--0----X--X--|

eb|--------------------------------------------------|
Bb|--3--3--------3--3--------3--3--------3--3--------|
Gb|--2--2--------2--2--------2--2--------2--2--------|
Db|--0--0--X--X--0--0--X--X--0--0--X--X--0--0--X--X--|
Ab|--0--0-X--X--0--0--X--X--0--0--X--X--0--0--X--X--|
Db|--0--0-X--X--0--0--X-X--0--0--X--X--0--0--X--X--|

eb|----------------------------------------------------------------|
Bb|----------------------------------------------------------------|
Gb|--9----11---7------------9----11---7----12-11-7--12----11---7--|
Db|----------------------------------------------------------------|
Ab|--7----9----5------------7----9----5----10--9--5--10----9----5--|
Db|----------------------------------------------------------------|


Verse:
eb|-----------------------------------------------|
Bb|-----------------7----7------------------------|
Gb|--------9-----9----------6----6--7----7--9-----|
Db|-----7--------------------------------------7--|
Ab|--5--------------------------------------------|
Db|-----------------------------------------------|

eb|------------------------------------------------|
Bb|-----------------7----7------------------10-----|
Gb|--------9-----9----------6----6--7----7------7--|
Db|-----7------------------------------------------|
Ab|--5---------------------------------------------|
Db|------------------------------------------------|

eb|------------------------------------------------------------------------|
Bb|--------10---------8------------5----------10---------8------------5----|
Gb|-----7--------7---------7----7-----7----7--------7---------7----7-----7-|
Db|--7---------------------------------------------------------------------|
Ab|------------------------------------------------------------------------|
Db|------------------------------------------------------------------------|

eb|-----------------------------------------------|
Bb|-----------------7----7------------------------|
Gb|--------9-----9----------6----6--7----7--9-----|
Db|-----7--------------------------------------7--|
Ab|--5--------------------------------------------|
Db|-----------------------------------------------|

eb|------------------------------------------------|
Bb|-----------------7----7------------------10-----|
Gb|--------9-----9----------6----6--7----7------7--|
Db|-----7------------------------------------------|
Ab|--5---------------------------------------------|
Db|------------------------------------------------|

eb|------------------------------------------------------------------------|
Bb|--------10---------8------------5----------10---------8------------5----|
Gb|-----7--------7---------7----7-----7----7--------7---------7----7-----7-|
Db|--7---------------------------------------------------------------------|
Ab|------------------------------------------------------------------------|
Db|------------------------------------------------------------------------|


eb|------------------------------------------------------|
Bb|--------10-----------10-----------10-----------10-----|
Gb|-----9------9-----9------9-----9------9-----9------9--|
Db|--7------------7------------7------------7------------|
Ab|------------------------------------------------------|
Db|------------------------------------------------------|

eb|-----------------------------|
Bb|--------8-----------8-----8--|
Gb|-----7-----7-----7-----7--7--|
Db|--5-----------5-----------5--|
Ab|-----------------------------|
Db|-----------------------------|
     (Pick Slide)


Chorus:
eb|------------------------------------------------------------------------|
Bb|------------------------------------------------------------------------|
Gb|---------7----9----11---14------7----9----7------12--11---12----11---7--|
Db|--0---------------------------------------------------------------------|
Ab|--0------5----7----9----12------5----7----5------10--9----10----9----5--|
Db|--0---------------------------------------------------------------------|

eb|-----------------------------------------------------------------------|
Bb|-----------------------------------------------------------------------|
Gb|------7----9----11---14------7----9----11---7-----12--11-7--12----11-7-|
Db|-0---------------------------------------------------------------------|
Ab|-0----5----7----9----12------5----7----9----5-----10--9--5--10----9--5-|
Db|-0---------------------------------------------------------------------|

eb|----------------------------------------------|
Bb|----------------------------------------------|
Gb|----------------------------------------------|
Db|--0----X--X--0----X--X--0----X--X--0----X--X--|
Ab|--0----X--X--0----X--X--0----X--X--0----X--X--|
Db|--0----X--X--0----X--X-0----X--X--0----X--X--|

eb|--------------------------------------------------|
Bb|--3--3--------3--3--------3--3--------3--3--------|
Gb|--2--2--------2--2--------2--2--------2--2--------|
Db|--0--0--X--X--0--0--X--X--0--0--X--X--0--0--X--X--|
Ab|--0--0-X--X--0--0--X--X--0--0--X--X--0--0--X--X--|
Db|--0--0-X--X--0--0--X-X--0--0--X--X--0--0--X--X--|

eb|--------------------------------------|
Bb|--------------------------------------|
Gb|--9----11---7------------9----11---7--|
Db|--------------------------------------|
Ab|--7----9----5------------7----9----5--|
Db|--------------------------------------|

eb|----------------------------------------------|
Bb|----------------------------------------------|
Gb|----------------------------------------------|
Db|--0----X--X--0----X--X--0----X--X--0----X--X--|
Ab|--0----X--X--0----X--X--0----X--X--0----X--X--|
Db|--0----X--X--0----X--X-0----X--X--0----X--X--|

eb|--------------------------------------------------|
Bb|--3--3--------3--3--------3--3--------3--3--------|
Gb|--2--2--------2--2--------2--2--------2--2--------|
Db|--0--0--X--X--0--0--X--X--0--0--X--X--0--0--X--X--|
Ab|--0--0-X--X--0--0--X--X--0--0--X--X--0--0--X--X--|
Db|--0--0-X--X--0--0--X-X--0--0--X--X--0--0--X--X--|

eb|------------------------------------------------------------|
Bb|------------------------------------------------------------|
Gb|--9----11---7------------9----11---7----12-11-7--12----11--|
Db|------------------------------------------------------------|
Ab|--7----9----5------------7----9----5----10--9--5--10----9---|
Db|------------------------------------------------------------|


Bridge:
eb|-----------------------------------------------------------------------|
Bb|-----------------------------------------------------------------------|
Gb|-------------7----------11-11-11-11-11-11-11-11-7--7--7--7--7--7--7--7-|
Db|--2----------7---------------------------------------------------------|
Ab|--2----------5----------9--9--9--9--9--9-9--9--5--5--5--5--5--5-5--5-|
Db|--2--------------------------------------------------------------------|

eb|---------------------------------------------|
Bb|---------------------------------------------|
Gb|--9--9--9--9--9--9--9--9--12----11---7----9--|
Db|---------------------------------------------|
Ab|--7--7--7--7--7--7--7--7--10----9----5----7--|
Db|---------------------------------------------|

eb|-----------------------------------------------------------------------|
Bb|-----------------------------------------------------------------------|
Gb|-------------7----------11-11-11-11-11-11-11-11-7--7--7--7--7--7--7--7-|
Db|--2----------7---------------------------------------------------------|
Ab|--2----------5----------9--9--9--9--9--9-9--9--5--5--5--5--5--5-5--5-|
Db|--2--------------------------------------------------------------------|

eb|--------------------------------------------------|
Bb|--------------------------------------------------|
Gb|--9--9--9--9--9--9--9--9--12----11---7----9----9--|
Db|-----------------------------------------------9--|
Ab|--7--7--7--7--7--7--7--7--10----9----5----7----7--|
Db|--------------------------------------------------|


eb|---------------------------------------------------------------------|
Bb|---------8-------------8------------12-----------12-----------10-----|
Gb|-----11-----11-----11-----11-----9------9-----9------9-----7------7--|
Db|--9-------------9-------------7------------7------------5------------|
Ab|---------------------------------------------------------------------|
Db|---------------------------------------------------------------------|

eb|------------------------|
Bb|--10----10----10----10--|
Gb|------------------------|
Db|------------------------|
Ab|------------------------|
Db|------------------------|

eb|---------------------------------------------------------------------|
Bb|---------8-------------8------------12-----------12-----------10-----|
Gb|-----11-----11-----11-----11-----9------9-----9------9-----7------7--|
Db|--9-------------9-------------7------------7------------5------------|
Ab|---------------------------------------------------------------------|
Db|---------------------------------------------------------------------|

eb|------------------------|
Bb|--10----10----10----10--|
Gb|------------------------|
Db|------------------------|
Ab|------------------------|
Db|------------------------|

eb|---------------------------------------------------------------------|
Bb|---------8-------------8------------12-----------12-----------10-----|
Gb|-----11-----11-----11-----11-----9------9-----9------9-----7------7--|
Db|--9-------------9-------------7------------7------------5------------|
Ab|---------------------------------------------------------------------|
Db|---------------------------------------------------------------------|

eb|------------------------|
Bb|--10----10----10----10--|
Gb|------------------------|
Db|------------------------|
Ab|------------------------|
Db|------------------------|


Chorus:
eb|------------------------------------------------------------------------|
Bb|------------------------------------------------------------------------|
Gb|---------7----9----11---14------7----9----7------12--11---12----11---7--|
Db|--0---------------------------------------------------------------------|
Ab|--0------5----7----9----12------5----7----5------10--9----10----9----5--|
Db|--0---------------------------------------------------------------------|

eb|-----------------------------------------------------------------------|
Bb|-----------------------------------------------------------------------|
Gb|------7----9----11---14------7----9----11---7-----12--11-7--12----11-7-|
Db|-0---------------------------------------------------------------------|
Ab|-0----5----7----9----12------5----7----9----5-----10--9--5--10----9--5-|
Db|-0---------------------------------------------------------------------|

eb|----------------------------------------------|
Bb|----------------------------------------------|
Gb|----------------------------------------------|
Db|--0----X--X--0----X--X--0----X--X--0----X--X--|
Ab|--0----X--X--0----X--X--0----X--X--0----X--X--|
Db|--0----X--X--0----X--X-0----X--X--0----X--X--|

eb|--------------------------------------------------|
Bb|--3--3--------3--3--------3--3--------3--3--------|
Gb|--2--2--------2--2--------2--2--------2--2--------|
Db|--0--0--X--X--0--0--X--X--0--0--X--X--0--0--X--X--|
Ab|--0--0-X--X--0--0--X--X--0--0--X--X--0--0--X--X--|
Db|--0--0-X--X--0--0--X-X--0--0--X--X--0--0-X--X--|

eb|--------------------------------------|
Bb|--------------------------------------|
Gb|--9----11---7------------9----11---7--|
Db|--------------------------------------|
Ab|--7----9----5------------7----9----5--|
Db|--------------------------------------|

eb|----------------------------------------------|
Bb|----------------------------------------------|
Gb|----------------------------------------------|
Db|--0----X--X--0----X--X--0----X--X--0----X--X--|
Ab|--0----X--X--0----X--X--0----X--X--0----X--X--|
Db|--0----X--X--0----X--X-0----X--X--0----X--X--|

eb|--------------------------------------------------|
Bb|--3--3--------3--3--------3--3--------3--3--------|
Gb|--2--2--------2--2--------2--2--------2--2--------|
Db|--0--0--X--X--0--0--X--X--0--0--X--X--0--0--X--X--|
Ab|--0--0-X--X--0--0--X--X--0--0--X--X--0--0--X--X--|
Db|--0--0-X--X--0--0--X-X--0--0--X--X--0--0--X--X--|

eb|--------------------------------------------------------------------|
Bb|-----------------------------------------------------------------3--|
Gb|--9----11---7----12-11-7--12----11----12--11-7--12----11--------2--|
Db|-----------------------------------------------------------------0--|
Ab|--7----9----5----10--9--5--10----9-----10--9--5-10----9---------0--|
Db|-----------------------------------------------------------------0--|



| /  slide up
| \  slide down
| h  hammer-on
| p  pull-off
| ~  vibrato
| +  harmonic
| x  Mute note
===============================================================================





Comments


Popular Faktion tabs & chords
Control Intro Tabs
Distance Tabs
Distance 1 Tabs
Maybe Intro Tabs
Maybe Intro 1 Tabs
Slip Away Intro Tabs
Take It All Away Tabs


Song lyrics



↑ Back to top | Tablatures and chords are parodies/interpretations of the original songs. You may use it for private study, scholarship, research or language learning purposes only
© 2014 AZChords.com Contact us | Privacy policy | DMCA | Add/correct tabs | Request tabs | Top 50 tabs