» » »

Control Tabs (ver.1)

Artists:  A B C D E F G H I J K L M N O P Q R S T U V W X Y Z # 

Control Tabs (ver.1)

Faktion
Rating:
4/5 (1 vote)
Tabs too difficult? Try these video lessons and learn fast.
                (Intro)
E----------2--------------------------------|
B------------------------4--------2---------|
G-----4------4---4-----4---4----4---4-------|
D---4---4------4----------------------------|
A-----------------------------2-------------|
E-0------------------4----------------------|

----------2--------------------------------|
------------------------4--------2h4-------|
-----4------4---4-----4---4----4-----------|
---4---4------4----------------------------|
-----------------------------2-------------|
-0------------------4----------------------|

this is my first tab, figured i might try it since nobody else has tabbed it yet.  
song by a band that is going to be great.  I am not to sure about the other parts or else i'd 
them to.  let me know if it sounds good. Thanks
            
Tabs too difficult? Try these video lessons and learn fast.


comments powered by Disqus
↑ Back to top | Tablatures and chords are parodies/interpretations of the original songs. You may use it for private study, scholarship, research or language learning purposes only