>
 >
Tratando De Volver

Tratando De Volver Guitar Tabs

Fakie - Tratando De Volver chords, tabs, tablatures, lyrics

Guitar lessons | Add/correct | Request | Top 50 tabs Artists:  A B C D E F G H I J K L M N O P Q R S T U V W X Y Z 0-9

Tratando De Volver Guitar Tabs – Fakie

CD, Sheet music, Poster

Do you like Tratando De Volver? Share with your friends now
Tabs
esta es una cancion de fakie que me gusta mucho y como vi q solo han tabeado los 
decidi sacarla por oido y ponerla aqui para q la puedan tocar... cualkier cosa escribanme a mi 

[INTRO]
e|-----0-------0------0------0-----------------|
b|----7-7-7---7-7-7--7-7-7--7-7-7--------------|
g|---7---7---7---7--7---7--7---7---------------|
d|--5------------------------------------------|x4
a|----------5----------------------------------|
e|-----------------5------7--------------------|

[CORO]
e|----------------------xxxx------------------|
b|---7-6-4~-----77--77--xxxx-7777/99999999----|
g|---x-x-x------xx--xx--xxxx-xxxx-xxxxxxxx----|
d|---5-4-2~-----55--55--xxxx-5555/77777777----|
a|----------------------xxxx------------------|
e|----------------------xxxx------------------|

e|-----------xxxx-----------------------xxxx---------------|
b|---77--77--xxxx-9999/11-------77--77--xxxx-7777/99999999-|
g|---xx--xx--xxxx-xxxx-x--[x8]--xx--xx--xxxx-xxxx/xxxxxxxx-|
d|---55--55--xxxx-7777/9--------55--55--xxxx-5555/77777777-|
a|-----------xxxx-----------------------xxxx---------------|
e|-----------xxxx-----------------------xxxx---------------|


e|----------xxxx---------------------------|
b|--77--77--xxxx-11[x8\7~---777~-----------|
g|--xx--xx--xxxx---------------------------|
d|--55--55--xxxx--9[x8]\5~--555~-----------|
a|----------xxxx---------------------------|
e|----------xxxx---------------------------|

guitarra uno [ VERSO ]
e|--------------------------------------------------|
b|--------------------------------------------------|
g|--------------------------------------------------|
d|-----12-11-12-------------------------------------|
a|--10-------------12-10-12----9-7-9---5-4-5--------|
e|--------------10------------7-------3-------------|

guitarra dos [VERSO]

e|-----------------------------|
b|-----------------------------|
g|---7-7-7-7-7-7-7-7-7-7-7-7---|
d|--5-5-5----------------------|
a|--------5-5-5----------------|
e|--------------5-5-5-7-7-7----|

luego el coro otra vez

y luego este [OUTRO] como 8 veces

e|------------------------------|
b|------------------------------|
g|------7777--------------------|
d|-5555-7777-7777-99999999------|
a|-5555-5555-7777-99999999------|
e|-3333------5555-77777777------|

y durante el outro este mini solo                 y en la ultima esto
e|-----------------------------------------------------|--------------------|
b|-----7p5---------7p5----------7p5---------7p5-8875---|--7p5-8-8-7-5-7-8~--|
g|---77---7-7-6-7-77---7-7-6-7-77--7-7-6-7-77----------|-77-----------------|
d|-----------------------------------------------------|--------------------|
a|-----------------------------------------------------|--------------------|
e|-----------------------------------------------------|--------------------|

y luego el punteo del verso hasta q termine la cancion





Comments


Popular Fakie tabs & chords
Dia Tras Dia Chords
Quizas No Podia Ver Chords
Ya Son Las 4 Chords
Palabras Al Final Tabs
Paris Tabs
Viernes De Nuevo Tabs
Dia Tras Dia Ukulele
Quizas No Podia Ver Ukulele
Ya Son Las 4 Ukulele


Song lyrics



↑ Back to top | Tablatures and chords are parodies/interpretations of the original songs. You may use it for private study, scholarship, research or language learning purposes only
© 2014 AZChords.com Contact us | Privacy policy | DMCA | Add/correct tabs | Request tabs | Top 50 tabs