» » »

Fakie, Paris Tabs (ver.1)

Artists:  A B C D E F G H I J K L M N O P Q R S T U V W X Y Z # 

Paris Tabs (ver.1)

Fakie Tabs
 Rating:
4/5 (4 votes)
Paris lessons Tabs too difficult? Try these video lessons and learn fast
                


intro
-------

2 veces
E:|---------------------------------------------------|
B:|---------------------------------------------------|
G:|---------------------------------------------------|
D:|---------------------------------------------------|
A:|------5----------7------------3--------------------|
E:|---------------------------------------------------|

1-guitarra(un arpegio en toda la cancion)
-------------------------------------------------------|
E:|----------------------------------------------------|
B:|---------------7--8---------------------------------|
G:|-------------7--------------------------------------|
D:|----------5-----------------------------------------|
A:|----------------------------------------------------|
E:|----------------------------------------------------|

verso-2da guitarra
-------
1-guitarra(un arpegio en toda la cancion)
------------------------------------|
E:|---------------------------------|
B:|---------------7--8--------------|
G:|-------------7-------------------|
D:|----------5----------------------|
A:|---------------------------------|
E:|---------------------------------|

2da-guitarra
E:|---------------------------------------------------|
B:|---------------------------------------------------|
G:|--------7-7-7-----9-------5-5-5--------------------|
D:|--------7-7-7-----9-------5-5-5--------------------|
A:|--------5-5-5-----7-------3-3-3--------------------|
E:|---------------------------------------------------|


E:|--------------------------------|
B:|---------------7--8-------------|
G:|-------------7------------------|
D:|----------5---------------------|
A:|--------------------------------|
E:|--------------------------------|


E:|---------------------------------------------------|
B:|---------------------------------------------------|
G:|--------7-7-7-----9-------5-5-5--------------------|
D:|--------7-7-7-----9-------5-5-5--------------------|
A:|--------5-5-5-----7-------3-3-3--------------------|
E:|---------------------------------------------------|

E:|--------------------------------|
B:|---------------7--8-------------|
G:|-------------7------------------|
D:|----------5---------------------|
A:|--------------------------------|
E:|--------------------------------|

coro
-------

E:|--------------------------------------------------|
B:|--------------------------------------------------|
G:|-4-4--5-5-5--7-7-7----9-7-5----5-5-5--------------|
D:|-4-4--5-5-5--7-7-7----9-7-5----5-5-5--------------|
A:|-2-2--3-3-3--5-5-5----7-5-3----3-3-3--------------|
E:|--------------------------------------------------|

E:|--------------------------------------------------|
B:|--------------------------------------------------|
G:|-4-4--5-5-5--7-7-7----9-7-5----5-5-5--------------|
D:|-4-4--5-5-5--7-7-7----9-7-5----5-5-5--------------|
A:|-2-2--3-3-3--5-5-5----7-5-3----3-3-3--------------|
E:|--------------------------------------------------|


E:|--------------------------------------|
B:|--------------------------------------|
G:|---7-7-7---9-9-9----7-7-7---9-9-9-----|
D:|---7-7-7---9-9-9----7-7-7---9-9-9-----|
A:|---5-5-5---7-7-7----5-5-5---7-7-7-----|
E:|--------------------------------------|

(termina cone estas notas)
E:|--------------------------------|
B:|--------------------------------|
G:|---7-7-7---9-9-9----7-7-7-------|
D:|---7-7-7---9-9-9----7-7-7-------|
A:|---5-5-5---7-7-7----5-5-5-------|
E:|--------------------------------|

donde estas.donde estas,donde estas.....


Intro
------

coro
------

verso
-----
            
Submit corrections

comments powered by Disqus
↑ Back to top | Fakie Tabs for Paris. Lyrics for acoustic guitar and electric guitar. Tablatures and chords are parodies/interpretations of the original songs. You may use it for private study, scholarship, research or language learning purposes only