» » »

Fakie, Palabras Al Final Tabs (ver.1)

Artists:  A B C D E F G H I J K L M N O P Q R S T U V W X Y Z # 

Palabras Al Final Tabs (ver.1)

Fakie Tabs
 Rating:
4.2/5 (5 votes)
Palabras Al Final lessons Tabs too difficult? Try these video lessons and learn fast
                -------------------------------------------------------------------------------
-------------------------------------------------------------------------------

Tuning: Standard (EADgbe)

Aqui va el tab de la canción de esta banda chilena

Intro pt. 1
e|------------|
B|--------3*--|
G|---0--------|
D|-2----2-----|
A|------------|
E|------------|

Intro pt. 2 / Verso
e|----------------------------------------------------------|
B|-------3-----3-------3-----3-------3-----3-----3-------3--|
G|---0-------0-----0-------0-----0-------0-----0---0---0----|
D|-2---2---2-------------------0---0---0--------------------|
A|---------------3---3---3-------------------2-------0------|
E|----------------------------------------------------------|

Coro (son los mismos acordes en los versos y en el bridge tambien)
e|-------------------| 
B|-------------------|
G|------5----7----4--|
D|-2----5----7----4--| 
A|-2----3----5----2--|
E|-0-----------------|

En la ultima vuelta agreguen el acorde de
e|----|
B|----|
G|-2--|
D|-2--| Justo despues del anterior
A|-0--|
E|----|

Intermedio
pm . .  . .  . .  . .      . .  . .  . .  . .
e|-------------------------------------------------|
B|-------------------------------------------------|
G|-------------------------5-5--5-5--5-5--5-5------|
D|-2-2--2-2--2-2--2-2-4p2--5-5--5-5--5-5--5-5-4h5--|
A|-2-2--2-2--2-2--2-2------3-3--3-3--3-3--3-3------|
E|-0-0--0-0--0-0--0-0------------------------------|

pm . .  . .  . .  . . 
e|----------------------------------------------|
B|----------------------------------------------|
G|-----------------------8-8--8-8--8-8--8-8-88--|
D|-2-2--2-2--2-2--2-2-4*-x-x--x-x--x-x--x-x-xx--|
A|-2-2--2-2--2-2--2-2----6-6--6-6--6-6--6-6-66--|
E|-0-0--0-0--0-0--0-0---------------------------|

e|--------------------------------------------------------------------|
B|--------------------------------------------------------------------|
G|-11-11--11-11--11-11--11-11-1111--10-10--10-10--10-10--10-10--10-10-|
D|-x--x---x--x---x--x---x--x--x-x---x--x---x--x---x--x---x--x---x--x--|
A|-9--9---9--9---9--9---9--9--9-9---8--8---8--8---8--8---8--8---8--8--|
E|--------------------------------------------------------------------|

e|------------------------------| 		
B|------------------------------|		
G|-111111-101066-10/111111-106--|		  
D|-x-x-x--x-x-xx--x/x-x-x--x-x--| 2x  		   
A|-9-9-9--8-8-44--8/9-9-9--8-4--|		    
E|------------------------------|		     
						      
e|-------------------------------|		     
B|-------------------------------|		     
G|-13-13-13-11-11-10---13-11-10--|		  
D|-x--x--x--x--x--x----x--x--x---| 2x   	
A|-11-11-11-9--9--8----11-9--8---|	
E|-------------------------------|		

Se repiten los anteriores 2 compases

Final
e|---------------------|
B|---------------------|
G|-11/10\-10-11111111--|
D|-x-/x \-x--x-x-x-x---| 3x
A|-9-/8 \-9--9-9-9-9---|
E|---------------------|

e|-----------|
B|-----------|
G|-11-11-11--|
D|-x--x--x---|
A|-9--9--9---|
E|-----------|

Ahora en forma de acordes para mejor entendimiento:

E5		C5
Quienes son ellos?
	D5	B5
que quieren de mi?
E5	    C5	    D5		B5
cuantas veces te he dicho que no les hables? 
E5		C5	  D5	 B5
quienes son ellos y tu que haces ahi?
E5	   C5		D5	  B5	
abre los ojos siempre hay caminos que
		E5
puedes seguir.

	   C5			D5
Y dime que vas a hacer para entender
		  B5
que no hay reglas en el juego
		E5
lo sabes bien

		C5		D5
Y dime que vas a hacer para entender 
	  B5	     A5 
cuando me veas caer, me veras perder


E5	C5
Y al final 
		D5
solo quedan recuerdos que se van 
		B5	     A5
y que caen al final donde quieres tu llegar

E5	   C5		   D5
hoy no los ves pero ahi estan 
		 B5	
y lo unico que quieren es 
E5	  C5
tomar tu forma
	D5	B5
de pensar y transformarla

CORO

E5	C5
El otro dia,
		D5
cuando cai por la ventana
	     B5		A5
justo antes de tocar el suelo 
	E5  	    C5
yo te vi sentada en el balcon
	D5		B5	A5
y fue lo ultimo, no alcance a decir adios

FINAL

| pm palm-muted
| *  let ring
| /  slide up
| \  slide down
| h  hammer-on
| p  pull-off
| ~  vibrato
| +  harmonic
| x  Mute note
===============================================================================
            
Submit corrections

comments powered by Disqus
↑ Back to top | Fakie Tabs for Palabras Al Final. Lyrics for acoustic guitar and electric guitar. Tablatures and chords are parodies/interpretations of the original songs. You may use it for private study, scholarship, research or language learning purposes only