» » »

Fake Shark - Real Zombie, Unusual Dorsal Features Bass tabs (ver.1)

Artists:  A B C D E F G H I J K L M N O P Q R S T U V W X Y Z # 

Unusual Dorsal Features Bass tabs (ver.1)

Fake Shark - Real Zombie Tabs
 Rating:
4/5 (4 votes)
Unusual Dorsal Features lessons Tabs too difficult? Try these video lessons and learn fast
1
                
This song is pretty f**king random but it's Total B.A.
I'll probably fix it later, but this is just to get you through.
try it and rate. viva taborama b**ches! 

Intro/Verse:8x
G--------------|
D--------------|
A-22-22-222222-|
E--------------|

Verse Pt.2:2x                    After 2x
G------------------------------|---------|
D------------------------------|---------|
A-22-22-222222-----------------|-7(ring)-|
E--------------3-0-3-0-6-0-6-0-|---------|

Pre-Chorus:3x
G------------------------------------------------|
D------------------------------------------------|
A---6---6---6---6--------------------------------|
E-5---5---5---5----3-0-3-0-3-0-3-0-3-0-3-0-3-0-3-|

Chorus:1x
G--------------------------------|
D--------------------------------|
A--------5(ring)-4(ring)-3(ring)-|
E-3(ring)------------------------|

G--------------------------------|
D--------------------------------|
A-6-6-6-6-5-5-55--4-4-4-4-3-3-33-|
E--------------------------------|

Bridge:2x
G-----------------------------------------------|
D-----------------------6-----------------------|
A---3-----5-----3-----5---5---3-----5-----3-----|
E-5---5-4---4-5---5-4-------5---5-4---4-5---5-4-|

Break-tro:1x
G--------------------------------------------------------|
D--------------------------------------------------------|
A----------------6(ring)-5-4--2--2--2--2--2--2--2--2--2--|
E-5----2----1------------------2--2--2--2--2--2--2--2--2-|

Break:2x (the random jazz part)
G-----------------------------------------|
D-----------------------------------------|
A-2--2--2--2--2--2--2--2--2--(slide)-8888-| 8x
E--2--2--2--2--2--2--2--2--2--------------|

G-------------------------------------------------------------------|
D-------------------------------------------------------------------| 
A-2--2--2--2--2--2--2--2--2--2--2--2--2--2--2--2--2--2-(slide)-8888-| 16x
E--2--2--2--2--2--2--2--2--2--2--2--2--2--2--2--2--2--2-------------|

After 2x:
G----------------------|
D----------------------|
A-8888-8888-88-88-8888-|
E----------------------|

Ending Verse: Play both 2x
G---------------------------------|
D---------------------------------|
A-2-2-2-2-2-2-2-2-----------------| 2x
E-----------------3-3-3-3-6-6-6-6-|

G--------------------------------|
D--------------------------------|
A-2-2--2--22-222-----------------| 2x
E----------------3-0-3-0-6-0-6-0-|

Outro:1x
G-------------------------|
D-------------------------|
A-7--7--7--7--7--7--7--7--|
E--7--7--7--7--7--7--7--7-|

END
            
Submit corrections

comments powered by Disqus
↑ Back to top | Fake Shark - Real Zombie Bass for Unusual Dorsal Features. Lyrics for acoustic guitar and electric guitar. 1 Tablatures and chords are parodies/interpretations of the original songs. You may use it for private study, scholarship, research or language learning purposes only