» » »

Fake Shark - Real Zombie, Siamese Disease Bass tabs (ver.1)

Artists:  A B C D E F G H I J K L M N O P Q R S T U V W X Y Z # 

Siamese Disease Bass tabs (ver.1)

Fake Shark - Real Zombie Tabs
 Rating:
4/5 (4 votes)
Siamese Disease lessons Tabs too difficult? Try these video lessons and learn fast
1
                (Devo)


Intro:1x
G------------------------------------------5-6-|
D-----3---3----------------3---3---------------|
A-5-5---4---3-3--3-3---5-5---4----1-1--1--3-4--|
E----------------------------------------------|

G-----------------------------------|
D-----3---3---------------3---3-----|
A-5-5---4---3-3--3-3--5-5---4---1-1-|
E-----------------------------------|


Verse:1x
G-------------------------------------------5-6-|
D-----3---3----------------3---3----------------|
A-5-5---4---3-3--3-3---5-5---4----1-1---1--3-4--|
E-----------------------------------------------|

G-----------------------------------------------|
D-----3---3----------------3---3--------0-3-0-3-|
A-5-5---4---3-3--3-3--5-5----4---1-1--1---------|
E-----------------------------------------------|

Pre-Chorus:1x
G----------------------------55-7-5-------|
D-55-555-5-77-777-7-88-888-8--------8-7-8-|
A-----------------------------------------|
E-----------------------------------------|

G--------------------------------555--5---|
D-55-555-5-77-77777-88888888-7-8-----5--5-|
A-----------------------------------------|
E-----------------------------------------|

Chorus:1x
G-----------------------------------------------|
D-----------------8-8--7-8-7-8-7----------------|
A-5-5--3-5-3-5-0-----------------8-8--7-8-7-8-5-|
E-----------------------------------------------|

G--------------------------------------------------------------------------------|
D-----------------------------------------------10-9--8-8--7-8-10-8--7-6-5-------|
A-7-7--5-7-5------8-8--7-8-7-8-9--10-10--8-10-8----------------------------8-7-6-|
E------------8-5-----------------------------------------------------------------|

Post-Chorus: Intro 1x
Verse:1x
Pre-Chorus:1x
Chorus:2x

Bridge Intro:1x
G------------------------------------------|
D------------------------------------------|
A-55555----55555----55555----55555-55-55-5-|
E------------------------------------------|

Main Bridge:4x                              After 1st & 3rd x | After 2nd x
G-----------5-------------10-------------7---|-----------10---|--------------|
D-------5-7---7-------7-8----7-88888-7-8---7-|-88888-7-8----7-|88888-88-88-8-|
A-55555---------55555------------------------|----------------|--------------|
E--------------------------------------------|----------------|--------------|

After 4th x
G---------------|
D-8-7-5---------|
A-------8-7-6-5-|
E---------------|

Outro:1x
G-------------------55--------------------33-|
D-----3---3----------------3---3-------------|
A-5-5---4---3-3--3-3---5-5---4----1-1--1-1---|
E--------------------------------------------|

G-----F??----------?---------------|
D---T----?--?--?--?------3---3-----|
A-W-------?--?-------5-5---4---1-1-|
E----------?-----------------------|
            
Submit corrections

comments powered by Disqus
↑ Back to top | Fake Shark - Real Zombie Bass for Siamese Disease. Lyrics for acoustic guitar and electric guitar. 1 Tablatures and chords are parodies/interpretations of the original songs. You may use it for private study, scholarship, research or language learning purposes only