» » »

Fake Shark - Real Zombie, Shame On You Scabs Bass tabs (ver.1)

Artists:  A B C D E F G H I J K L M N O P Q R S T U V W X Y Z # 

Shame On You Scabs Bass tabs (ver.1)

Fake Shark - Real Zombie Tabs
 Rating:
4/5 (4 votes)
Shame On You Scabs lessons Tabs too difficult? Try these video lessons and learn fast
                Another kickass song. 
I just skimmed through by the way I play it but may need some fine-tuning 
the ladder of the dong. Give it a try, rate and comment.

Intro:2x
G-------------------------------|
D-------------------------------|
A-22--22--22--22----------------|
E----------------11--11--11--11-|

Verse: Play Intro 2x

Pre-Chorus:1x
G------------------|
D------------3--3--|
A-0-2-3-0--22-22-2-|
E------------------|

Chorus:(Both Parts:2x)
Pt.1
G-------------------------------------------------|
D-------------------------------------------------|
A-22-2(slide)5-5---55-7-7-------------------------|
E-------------------------77-7(slide)3-3---33-0-0-|

Pt.2:2x
G------------------------------------------------------|
D------------------------------------------------------|
A-22-2(slide)5555555555--7-7---------------------------|
E---------------------------77-7(slide)3333333333--0-0-|

Post-Chorus:1x
G----------------|
D----------------|
A----------------|
E-88--88--88--88-|

2nd Verse:(Both Prts:2x)
G------------------------|
D------------------------|
A-2--2--2--2-------------|
E-------------1--1--1--1-|

G-2--4----------2--4------------------------|
D-------------------------------------------|
A-----0-2-5-2-0-----------------------------|
E--------------------0-2-5-2-0---1--1--1--1-|

Bridge:2x
G---------------------------|
D---0-2-0------0-2-0--------|
A-2-------2--2------------1-|
E--------------------3--2---|

Chorus:2x

Outro:1x
G-----------------------------------------10---------------|
D--------------------------------------10------------------|
A-10-10-10-10-10-10-10-10---0-9-10-7-8-------2--2--2--2----|
E--------------------------------------------------------1-|
            
Submit corrections

comments powered by Disqus
↑ Back to top | Fake Shark - Real Zombie Bass for Shame On You Scabs. Lyrics for acoustic guitar and electric guitar. Tablatures and chords are parodies/interpretations of the original songs. You may use it for private study, scholarship, research or language learning purposes only