» » »

Fake Shark - Real Zombie, Sestri Levante Bass tabs (ver.1)

Artists:  A B C D E F G H I J K L M N O P Q R S T U V W X Y Z # 

Sestri Levante Bass tabs (ver.1)

Fake Shark - Real Zombie Tabs
 Rating:
4.2/5 (5 votes)
Sestri Levante lessons Tabs too difficult? Try these video lessons and learn fast
1
                
Verse:1x
G-9--------------11------12-11-9--------------11------12----|
D---9-------9---------12---------9-------9---------12----12-|
A-----7-9------9---10--------------7-9------9---10----------|
E---------7----------------------------7--------------------|

G-9--------------11---12--12----9--------------------------------|
D---9-------9----------------12---9------9---------------------7-|
A-----7-9------9---10---------------7-9----9-9-9-9-10-10-10-10---|
E---------7-----------------------------7------------------------|

Chorus:4x
G-----------------------------------------|
D---------------------4-4(ring)-5-5-5-5-7-|
A-7-7(ring)--2-2(ring)--------------------|
E-----------------------------------------|

Post-Chorus:1x
G-9--------------11------11p12----9--------------11------14-11-12-|
D---9-------9---------12-------12---9-------9---------12----------|
A-----7-9------9---10-----------------7-9------9---10-------------|
E---------7-------------------------------7-----------------------|

Verse:1x

2nd Chorus:4x
G------------------------------------------|
D------------------------------------------|
A-7-7(ring)--2-2(ring)---------------------|
E----------------------2-2(ring)-3-3-3-3-5-|

Bridge:1x
G---------------------------------------------------------------------------------|
D-9999-9999-7777-7777-5555-5555---------------------------------------------------| Play 2x
A-------------------------------9999-9999-7777-7777-7777-7777-9999-9999-9999-9999-|
E---------------------------------------------------------------------------------|

G---------7---------7-------------------|
D-999-7-9---999-7-9----777-5-77-5-4-----| Play 2x
A-----------------------------------7-5-|
E---------------------------------------|

G--------------------------------------|
D------------------------------5-4-----| Play 2x
A---------5---------5--------------7-5-|
E-777-5-7---777-5-7---555-3-55---------|

G----------------------------------|
D-5-4-----5-4-----5-4--------------| Play 1x
A-----7-5-----7-5-----7-5----------|
E--------------------------33-33-3-|


Last Chorus:4x
G-------------------------------------------------------------------------------------|
D---------------------4444-4444-5555-5555-7-------------------------------------------|
A-7777-7777-2222-2222-----------------------7777-7777-2222-2222-----------------------|
E---------------------------------------------------------------2222-2222-3333-3333-5-|


Outro:1x
G-9--------------11------12-11-9-------------|
D---9-------9---------12---------9------9----|
A-----7-9------9---10--------------7-9----99-|
E---------7----------------------------7-----|
            
Submit corrections

comments powered by Disqus
↑ Back to top | Fake Shark - Real Zombie Bass for Sestri Levante. Lyrics for acoustic guitar and electric guitar. 1 Tablatures and chords are parodies/interpretations of the original songs. You may use it for private study, scholarship, research or language learning purposes only