» » »

Fake Shark - Real Zombie, Running For The Razors Bass tabs (ver.1)

Artists:  A B C D E F G H I J K L M N O P Q R S T U V W X Y Z # 

Running For The Razors Bass tabs (ver.1)

Fake Shark - Real Zombie Tabs
 Rating:
4.2/5 (5 votes)
Running For The Razors lessons Tabs too difficult? Try these video lessons and learn fast
1
                check it!

Intro:4x
G-----------------|
D-----------------|
A-222222222222--1-|
E-----------------|

1st Verse:4x
G-------------------------------------|--------------|
D------2(slide)-9(slide)-2------------|--------------|
A-2-2-2--------------------2-2-22-0-1-|-2-2-22-3-2-0-|
E-------------------------------------|--------------|

Chorus:1x
G----------------------------------------------------------|
D--------------4-7-9-7---------9-7-9-12-9-7----------------|
A--------33-3-3--------9-8-7-5-----------------------33333-|
E-33-3-3------------------------------------33-0-33-0------|

Post-Chorus:Intro:4x

2nd Verse:1x
G------------------------------------------------|
D------------------------------------------------|
A-2-5-4--1-1--2-5-4--1-1--2-5-4--1-1--2-5-4--1-1-|
E------------------------------------------------|

G---------------------------------------------------|
D-------------------------------------------7-5-4-2-|
A-2-5-4--1-1--2-5-4--1-1--2-5-4--1-1--2-5-2---------|
E---------------------------------------------------|

G---------------------------------------------------|
D-2-5-4--1-1--2-5-4--1-1--2-5-4--1-1--5-4-3-2-------|
A---------------------------------------------5-4-3-|
E---------------------------------------------------|

G---------------------------------------------------|
D---------------------------------------------------|
A-2-5-4--1-1--2-5-4--1-1--2-5-4--1-1--5-4-3-2-------|
E---------------------------------------------6-5-4-|

Chorus:1x
Post-Chorus:2x

Bridge:1x
G--------------------------------------|
D--------------------------------------|
A-5(ring)-7(ring)-7-8-7(slide)-2(ring)-|
E--------------------------------------|

G-----------------------------------------|
D----------------------7(slide)-9(ring)-9-|
A-5(ring)-7(ring)-7-8-7-------------------|
E-----------------------------------------|

G----------------------------------------------------------|
D----------------------------------------------------------|
A-5(ring)-7(ring)-7-8-7(slide)-2(ring)-2-2-5(ring)-7(ring)-|
E----------------------------------------------------------|

Post-Bridge:1x
G---------------------------------|
D---------------------------------|
A---------------------------------|
E-------1--------1-------1------1-|

Ending Chorus:1x
G-------------------------------------------|
D--------------4-7-9-7---------9-7-9-12-9-7-|
A--------33-3-3--------9-8-7-5--------------|
E-33-3-3------------------------------------|

G------------------------------------------|
D--------------4-7-9-7---9-7---9-7---9-7---|
A--------33-3-3--------9-----9-----9-----9-|
E-33-3-3-----------------------------------|

G---------------------7---7p9-7--------------|
D---------------4-7-9---9-------9-9-7---9-7--|
A--------33-3-3----------------------9-----9-|
E-33-3-3-------------------------------------|

Outro:1x
G-------------------------------|
D-9-7---7-----------------------|
A-----9---9-7-9-7---7-----------|
E-----------------9---9-8-9-8-7-|
            
Submit corrections

comments powered by Disqus
↑ Back to top | Fake Shark - Real Zombie Bass for Running For The Razors. Lyrics for acoustic guitar and electric guitar. 1 Tablatures and chords are parodies/interpretations of the original songs. You may use it for private study, scholarship, research or language learning purposes only