» » »

Fake Shark - Real Zombie, Panty Party Hand Cramp Bass tabs (ver.1)

Artists:  A B C D E F G H I J K L M N O P Q R S T U V W X Y Z # 

Panty Party Hand Cramp Bass tabs (ver.1)

Fake Shark - Real Zombie Tabs
Rating:
0/5 (0 votes)
Hard to play? Try these video lessons and learn fast.
                get hyphy

Intro:5x
G---------------------------------------|
D---------------------------------------|
A-555-----00000000---777-----000000000--|
E-----1-1----------------0-0------------|

Part II:1x
G-----------------------------------------------------------------------------|
D-77777777777777777777777----------777777777777777777-------------------------|
A------------------------8888888888-------------------------------------------|
E-----------------------------------------------------33-00-33-00-33-00-33-00-|

Part III:2x
G----------------------------------------|
D----------------------------------------|
A----------------------------------------|
E-5-5-5-555-55--3-3-00-33-00-33-00-33-00-|

Part IV:4x                    After 4x
G----------------------------|-------------|
D----------------------------|-------------|
A----------3-3-----------1-1-|-00-11-00-11-|
E-55-555555-----33-333333----|-------------|

Bridge:1x
G----------------------------------------|
D----------------------------------------| Play 4x
A-5(ring)------------------------------6-|
E---------1(ring)----5(ring)----5(ring)--|

G---------------------------------------|
D---------------------------------------| Play 1x
A-55555555----------------------------3-|
E----------11111111-5555555-3-5555555---|

G------------------------------------------|
D------------------------------------------| Play 1x
A-5555555--------------------------------3-|
E---------0-11111111-5-3-5555-3-5-3-5555---|

G-----------------------------------------|-----------|
D-------------------7-5-7777-5-7-5-7777-5-|-----------| Play 4x
A-5555555-7-8888888-----------------------|-----------|
E-----------------------------------------|-----------|

G------------------------------------------------------|
D--------------------------------------7-8-7-8-7-8-7-8-| Play 1x
A-5555555----------------------------------------------|
E---------11111111-55555555-8-55555555-----------------|

Outro:2x                                   2x round
G----------------------------------------|-----|
D-77-77-77-66-66-0-77-77-77-66-66-0------|-----|
A-----------------------------------8888-|-8-1-|
E----------------------------------------|-----|
            

comments powered by Disqus
↑ Back to top | Fake Shark - Real Zombie Bass for Panty Party Hand Cramp. Lyrics for acoustic guitar and electric guitar. Tablatures and chords are parodies/interpretations of the original songs. You may use it for private study, scholarship, research or language learning purposes only