» » »

Pair Of Dice Bass tabs (ver.1)

Artists:  A B C D E F G H I J K L M N O P Q R S T U V W X Y Z # 

Pair Of Dice Bass tabs (ver.1)

Fake Shark - Real Zombie
Rating:
0/5 (0 votes)

Hard to play? Try these video lessons and learn fast.
                
Check it out. I know it's rite, so play along b**ches.
comment and rate. viva taborama.

Intro:2x
G-----------------------------------|
D-44-4-44-4--77-7-55-5-22-22-22-22--|
A------------------------2--2--2--2-|
E-----------------------------------|
                                         After 2x
G----------------------------------------|---------|
D-44-4-44-4--77-7-55-5-22-22-2-----------|---------|
A------------------------2----33-22-00---|---------|
E--------------------------------------3-|-3-----3-|

Pre-Verse:2x
G---------------------------|
D---------------------------|
A---------------------------|
E-0-33--0-3-3-33-0-333-4-33-|

Verse:4x
G----------------------------|
D----------------------------|
A---22--2-2-22---22---1-1-11-|
E-3----3-------3----2--------|

Chorus:2x
G-----------------------------------------|
D-555555-22-----------555555-22-----------|
A-----------5555-2222-----------5555-1111-|
E-----------------------------------------|

Pre-Verse:2x
Verse:2x
Chorus:4x

Bridge:1x
G----------------|
D----------------|
A----------------|
E-3----3-----3---|

Outro:3x    After 3x
G---------|-----------|
D---------|---------5-|
A---1-3-1-|---1-3-5---|
E-3-------|-3---------|

   ---Drums---
Outro:13x

END
            
Hard to play? Try these video lessons and learn fast. | Correct




comments powered by Disqus
↑ Back to top | Tablatures and chords are parodies/interpretations of the original songs. You may use it for private study, scholarship, research or language learning purposes only