» » »

Fake Shark - Real Zombie, Love Lice Bass tabs (ver.1)

Artists:  A B C D E F G H I J K L M N O P Q R S T U V W X Y Z # 

Love Lice Bass tabs (ver.1)

Fake Shark - Real Zombie Tabs
 Rating:
4/5 (4 votes)
Love Lice lessons Tabs too difficult? Try these video lessons and learn fast
1
                
Intro/Chorus:4x
G------------------|
D-6-6-6-6----------|
A--5-5-5-5-----444-|
E----------3333----|

Bridge:2x                           After 2x
G-----------------------------------|-----|
D-----------------------------------|-----|
A-4-3------4-3------3-2------3-2----|-3---|
E-----2--------2--------1--------1--|---5-|

Verse:4x        After 4x 
G---------------|----------------|
D---3-----------|-5(ring)---7-8--|
A-5---3-3--66-6-|----------------|
E---------------|----------------|

Verse:4x
Chorus:4x

Outro:1x
G----------|
D----------|
A-55-55-55-|
E----------|
Outro:1x
G-------------------------|
D-----9-----------11--444-|
A---7-----------9---------|
E-5------222--7-----------|
            
Submit corrections

comments powered by Disqus
↑ Back to top | Fake Shark - Real Zombie Bass for Love Lice. Lyrics for acoustic guitar and electric guitar. 1 Tablatures and chords are parodies/interpretations of the original songs. You may use it for private study, scholarship, research or language learning purposes only