» » »

Horses In Heaven Bass tabs (ver.1)

Artists:  A B C D E F G H I J K L M N O P Q R S T U V W X Y Z # 

Horses In Heaven Bass tabs (ver.1)

Fake Shark - Real Zombie
Rating:
0/5 (0 votes)

Hard to play? Try these video lessons and learn fast.
                
Intro:2x
G---------------------------------------|
D-55555--99999-77777-55555--------------|
A---------------------------77777-77777-|
E---------------------------------------|

Post-Intro:4x
G-------------------|
D-------------------|
A-------1-5-22222-5-|
E-33333-------------|

Verse:4x
G---------------------------------------|
D---------------------------------------|
A--------22222--------------------------|
E-33333--------55555-33333--00000-00000-|

Chorus:4x          Play After 4x
G------------------|-------------------|
D------------------|----------44444444-|
A------1-5-2-222-5-|-77777777----------|
E-3-33-------------|-------------------|

Post-Chorus:4x
G-----------------------3---------------------------|
D-4-----4-----4-----4-2---2-----2-----2-----2-333---|
A---5-2---5-2---5-2---------4-1---4-1---4-1-------2-|
E---------------------------------------------------|

Intro(2nd Verse):2x
G---------7-------77777---------6-------77777-|
D-55555-8---99999-------------8---99999-------|
A-----------------------99999-----------------|
E---------------------------------------------|

Verse:2x
Chorus:4x
Post-Chorus:4x

Bridge:2x
G---------------------------------------------------------------------------------------------|
D---------------------------------------------------------------------------------------------|
A---------2222222-------------------------------------2222222-4-0-4-0-4-0-4-0-4-0-4-0-4-0-4-0-|
E-33333333--------2-0-2-0-2-0-2-0-2-0-2-0-2-0-33333333----------------------------------------|

Outro:2x
G--------------------------------------|
D-4--------4----------2----------2-----|
A---5-2-22---5-2--1-1---4-1--1-1---4-1-|
E--------------------------------------|
            
Hard to play? Try these video lessons and learn fast. | Correct




comments powered by Disqus
↑ Back to top | Tablatures and chords are parodies/interpretations of the original songs. You may use it for private study, scholarship, research or language learning purposes only