» » »

Ferrtis Beullers Day Off Bass tabs (ver.1)

Artists:  A B C D E F G H I J K L M N O P Q R S T U V W X Y Z # 

Ferrtis Beullers Day Off Bass tabs (ver.1)

Fake Shark - Real Zombie
Rating:
0/5 (0 votes)

Hard to play? Try these video lessons and learn fast.
                
This is just a rough cut but it follows closely.
try it out.

Intro/Verse:6x
G--------------------------------------|
D-55-555-88----------------------------|
A-----------55-555-88------------------|
E---------------------55-5-56--22-2-24-|

Pre-Chorus:1x
G------------------------------------------------------|
D----------------------------------------------3-3-4-4-|
A-3-1--3-1-3--55555555--3-1-3--55555555--3-1-3---------|
E------------------------------------------------------|

Chorus:4x                      After 4x  
G------------------------------|---------|
D------------------7-77---6-66-|---------|
A---5-55---8-88--5------9------|---------|
E-3------6---------------------|-3(ring)-|

Bridge:2x
G----------------------------------------------|
D-55555555-8888--------------------------------|
A--------------55555555-8888-------------------|
E---------------------------55555555-6666--2-3-|

Outro: Play Bridge 3x
            
Hard to play? Try these video lessons and learn fast. | Correct




comments powered by Disqus
↑ Back to top | Tablatures and chords are parodies/interpretations of the original songs. You may use it for private study, scholarship, research or language learning purposes only