» » »

Fake Shark - Real Zombie, Eenie Meanie Bass tabs (ver.1)

Artists:  A B C D E F G H I J K L M N O P Q R S T U V W X Y Z # 

Eenie Meanie Bass tabs (ver.1)

Fake Shark - Real Zombie Tabs
 Rating:
4/5 (4 votes)
Eenie Meanie lessons Tabs too difficult? Try these video lessons and learn fast
                Album:Zebra!Zebra!

it's kick ass. try it!
Check it out! Rate and Comment!


Intro:2x
G---------------|
D---------------|
A-------------5-|
E-5-4-3-5-4-3---|

Verse:1x                             After 1,3 & 4x |After 2x
G-------------------------------------|-------------|-------------|
D-------3-----------3------------3----|-------------|-------------|
A-5-3-5---5-3-5-3-5---5-3-5-3-5---5-3-|-------------|-------------|
E-------------------------------------|-5-4-3-5-4-3-|-5-4-3-2-1-0-|

Pre-Chorus:2x                      After 2x
G---7----10--9-------12--10---12---|---------|
D----------------------------------|---------|
A-5----8---7---8--10---8---10--10--|-3(ring)-|
E----------------------------------|---------|

Chorus:4x
G-------------------------------|
D-------------------------------|
A-55-5555-333-33-222-22-111-000-|
E-------------------------------|

Bridge:2x
G--7(ring)-5(ring)-4(ring)-3(ring)-|
D--7(ring)-5(ring)-4(ring)-3(ring)-|
A----------------------------------|
E----------------------------------|

Pre-Chorus:2x

Outro:1x
G--------------------------------------------------|
D----------333-3-33-222-2-22-666-66-66-------------|
A-555-5-55----------------------------3-3-3-3-3333-|
E--------------------------------------------------|
            
Submit corrections

comments powered by Disqus
↑ Back to top | Fake Shark - Real Zombie Bass for Eenie Meanie. Lyrics for acoustic guitar and electric guitar. Tablatures and chords are parodies/interpretations of the original songs. You may use it for private study, scholarship, research or language learning purposes only