» » »

Fake Shark - Real Zombie, Designer Drugs Bass tabs (ver.1)

Artists:  A B C D E F G H I J K L M N O P Q R S T U V W X Y Z # 

Designer Drugs Bass tabs (ver.1)

Fake Shark - Real Zombie Tabs
Rating:
0/5 (0 votes)
Designer Drugs lessons Tabs too difficult? Try these video lessons and learn fast
                Album:Zebra!Zebra!

I corrected the verse the chorus know, so it should sound more accurate.
Comment and Rate.

Intro:2x
G------------------------------------------------------|
D---------------------------------------1--5-5-5-4-5/1-|
A-5-5-5--5-6/3--1-1-1--1/3-0---------------------------|
E-----------------------------3-3-3--1-3---------------|

Verse:Play Intro 2x

Chorus:2x
G--------------777--121212--------------777--10-9-|
D----------555----------------------555-----------|
A-66666666-----------------55555555---------------|
E-------------------------------------------------|

Post-Chorus:1x
G---------------------|
D---------------------|
A-5-----5-------------|
E---------3---3(ring)-|


Verse:4x
Chorus:2x

Bridge:2x
G------------------------------------------------------=---------------------|
D--------------6-6-6---------------3-3-0--------------6-6-6--------------3-2-|
A-666666666666-------5555555555555-------666666666666------5555555555555-----|
E----------------------------------------------------------------------------|

Post-Bridge:1x
G-----------|
D-----------|
A-----------|
E---33--33--|

Chorus:4x
Outro: Play Post-Bridge
            

comments powered by Disqus
↑ Back to top | Fake Shark - Real Zombie Bass for Designer Drugs. Lyrics for acoustic guitar and electric guitar. Tablatures and chords are parodies/interpretations of the original songs. You may use it for private study, scholarship, research or language learning purposes only