» » »

Designer Drugs Tabs (ver.1)

Artists:  A B C D E F G H I J K L M N O P Q R S T U V W X Y Z # 

Designer Drugs Tabs (ver.1)

Fake Shark - Real Zombie
Rating:
5/5 (3 votes)

Hard to play? Try these video lessons and learn fast.
                Al=bum: Zebra!Zebra!

well, thnks to the efforts J.Smyth, here are the 100% tabs from the man himself, Louis 
which means if you rate this low, your an idiot.
check it and rate!!!

1st Verse:
E--------------------------------------|--------------------------------------|
B-10-----11-----10----------15--13--11-|-10-----11-----10------11--11--11--11-|
G----12-----12-----11-11-11------------|----12-----12-----11---12--12--12--12-|
D--------------------------------------|--------------------------------------|
A--------------------------------------|--------------------------------------|
E--------------------------------------|--------------------------------------|


Chorus - "///" = STRUM!!!!!
E--------------------------------------|--------------------------------------|(x2)
B-15-/-/-/-/-/-/-/---------------------|-------------------20-/-/-/-/-/-/-/---|
G-15-/-/-/-/-/-/-/-15-/-/-/-/-/-/-/----|--------------------------------------|
D-17-/-/-/-/-/-/-/-17-/-/-/-/-/-/-/----|-19-/-/-/-/-/-/-/--18-/-/-/-/-/-/-/---|
A------------------16-/-/-/-/-/-/-/----|-17-/-/-/-/-/-/-/---------------------|
E--------------------------------------|--------------------------------------|
"When we're, dead by dawn..."

2nd Verse (guitar one, the same)
Main Riff x1
Guitar 1 - 1st verse riff

Guitar 2.(x2)
E--------------------------------------|--------------------------------------|
B-15--13-15--11-13--10-----------------|-16p15h16--13--15--13--10--11---------|
G--------------------------------------|--------------------------------------|
D--------------------------------------|--------------------------------------|
A--------------------------------------|--------------------------------------|
E--------------------------------------|--------------------------------------|

E---------------------------------------|
B-15--13-15--11-13--10--11--11--11--11-*|
G-----------------------12--12--12--12--|
D--------------------------------------*|
A---------------------------------------|
E---------------------------------------|

Guitar 1 riff with Harmony (x1)

*Chorus (1x)

Bridge: Heavy Distortion b**chES!!!
E--------------------------------------|--------------------------------------|
B--------------------------------------|------------8--8--10-10---15--15--15--|(x4)
G------------6--6---8--8---13--13--13--|------------6--6---8--8---13--13--13-*|
D------------5--5---7--7---12--12--12--|------------5--5---7--7---12--12--12-*|
A--------------------------------------|--------------------------------------|
E-3-3--6--6----------------------------|-3--3--6--6---------------------------|
(PM.........)

Last time...
E--------------------------x--x--|-<12>-|
B--------------------------x--x--|-<12>-|
G------------6--6---8--8---x--x--|-<12>-|
D------------5--5---7--7---x--x--|-<12>-|
A--------------------------x--x--|-<12>-|
E-3-3--6--6----------------x--x--|-<12>-|


Chorus

End Solo...
E--------------------------------------------|------------------------------------------------|(x2)
B-------------15-----------------------------|--------------------------------20------20------|
G-------15----------15-------15------15------|------------------------------------------------|
D-17-17----17----17-------17------17------17-|--------19----19----19-----0-18----0-18----0-18-|
A----------------------16------16------16----|-17-17-----17----17----17-----------------------|
E--------------------------------------------|------------------------------------------------|

END
E-------------------------|
B-------------------------|
G------------6--6---8--8--|
D------------5--5---7--7--|
A-------------------------|
E-3-3--6--6---------------|
            
Hard to play? Try these video lessons and learn fast. | Correct




comments powered by Disqus
↑ Back to top | Tablatures and chords are parodies/interpretations of the original songs. You may use it for private study, scholarship, research or language learning purposes only