» » »

Dead Diy Die Bass tabs (ver.1)

Artists:  A B C D E F G H I J K L M N O P Q R S T U V W X Y Z # 

Dead Diy Die Bass tabs (ver.1)

Fake Shark - Real Zombie
Rating:
0/5 (0 votes)

Hard to play? Try these video lessons and learn fast.
                Album:Zebra!Zebra!

This is the continuation of shoreditch vampire.
pretty bad-ass, check it. somebody, comment and rate this.
you know you want to.

Intro:2x
G--------------------------------|
D--------------------------------|
A---5-----5-----5--------4-6-4-0-|
E-4---0-4---0-4---0--0-4---------|

G------------------------|
D------------------------|
A---5-----5-----5------7-|
E-4---0-4---0-4---0--00--|

Verse:8x         (Play After 4x and 8x)
G----------------|---------|
D----------------|---------|
A----6-----------|---6-7-9-|
E-4-----7--6-7-6-|-4-------|

Pre-Chorus:4x  (Play After 4x)
G-------------|------------|
D-------------|------------|
A---6677------|---66-77-99-|
E-44----6-7-6-|-44---------|

Chorus:2x
G--------------------6----6-|
D------------------4----4---|
A-4--7-6-4--7-4--6----6-----|
E---------------------------|

Pre-Chorus:4x
Chorus:2x

-pause-

Outro: Intro 1x
            
Hard to play? Try these video lessons and learn fast. | Correct




comments powered by Disqus
↑ Back to top | Tablatures and chords are parodies/interpretations of the original songs. You may use it for private study, scholarship, research or language learning purposes only