» » »

Fake Shark - Real Zombie, Crystal Compass Bass tabs (ver.1)

Artists:  A B C D E F G H I J K L M N O P Q R S T U V W X Y Z # 

Crystal Compass Bass tabs (ver.1)

Fake Shark - Real Zombie Tabs
 Rating:
4/5 (4 votes)
Crystal Compass lessons Tabs too difficult? Try these video lessons and learn fast
1
                Album:Zebra!Zebra!

Dope song but the verses is pretty fast to catch. 
You gotta have quick reflexes to play properly.
rate and comment

Intro:8x
G---------------------|
D---------------------|
A------(slide)6666666-|
E-33-2-3--------------|

Verse:2x
G------------------------------------7-|
D---0---2-4---0---2-4------7-9----7-9--|
A-2---------2---------7-9------7-9-----|
E--------------------------------------|

Pre-Chorus:2x
G------------------------------------------------7-----|
D-4-2-0--4-2-0--4-2-0--4-2-0------7-9---7-9---7-9-9-7-9|
A------2------2-------2-----2--7-9---7-9---7-9---------|
E------------------------------------------------------|

Chorus:2x                  Play after 2x
G--------------------------|-----------|
D-5555-4444----------------|-5555-4444-|
A-------------------55--77-|-----------|
E-----------33--77---------|-----------|

Post-Chorus:1x
G--------------------------------------------|
D--------------------------------------------|
A-2222222222222255555555-2222222225555555555-|
E--------------------------------------------|

Intro:4x
Verse:2x
Pre-Chorus:2x
Chorus:2x
Post-Chorus:1x

Bridge:2x
G-------------------------------------------------------------------|
D-------------------2-2-2-2-0-0-5-5-4-4-4-4-2-0-0-7-7-5-5-5-5-77-88-|
A-2-2-2-2-0---------------------------------------------------------|
E-----------3-3-3-3-0-----------------------------------------------|

Post-Chorus:1x
Outro: Play Intro 3x

Finish by hitting open strings randomly for distortion.


Alternative Chorus (The Chorus played live)
G-------------4--7--9--11-|-----------|
D-5555-4444---------------|-5555-4444-|
A------------2--5--7--9---|-----------|
E-------------------------|-----------|

END
            
Submit corrections

comments powered by Disqus
↑ Back to top | Fake Shark - Real Zombie Bass for Crystal Compass. Lyrics for acoustic guitar and electric guitar. 1 Tablatures and chords are parodies/interpretations of the original songs. You may use it for private study, scholarship, research or language learning purposes only