» » »

Fake Shark - Real Zombie, Cherry Lava Bass tabs (ver.1)

Artists:  A B C D E F G H I J K L M N O P Q R S T U V W X Y Z # 

Cherry Lava Bass tabs (ver.1)

Fake Shark - Real Zombie Tabs
 Rating:
4/5 (4 votes)
Cherry Lava lessons Tabs too difficult? Try these video lessons and learn fast
1
                
Verse:4x
G--------------------|
D--------------------|
A--------------------|
E-22-0-2---0-4-5-555-|

Chorus:4x
G-------------------------------|
D-------------------------------|
A-----------------2-2-2---4-4-4-|
E-5-5-5---2-2-2-----------------|

Verse:4x
Chorus:4x

Bridge:1x
G-------------------------------------------------------------------------|
D-55555555-22222222-77777777-99999999-55555555-22222222-------------------|
A-------------------------------------------------------00000000-22222222-|
E-------------------------------------------------------------------------|

G-------------------------------------------------------------------------|
D-55555555-22222222-77777777-99999999-55555555-22222222-00000000-11111111-|
A-------------------------------------------------------------------------|
E-------------------------------------------------------------------------|

Verse:4x

Outro:1x
G-------------------------|
D-----9-----------11--444-|
A---7-----------9---------|
E-5------222--7-----------|
            
Submit corrections

comments powered by Disqus
↑ Back to top | Fake Shark - Real Zombie Bass for Cherry Lava. Lyrics for acoustic guitar and electric guitar. 1 Tablatures and chords are parodies/interpretations of the original songs. You may use it for private study, scholarship, research or language learning purposes only