» » »

Fake Shark - Real Zombie, Avrl Kadaver Bass tabs (ver.1)

Artists:  A B C D E F G H I J K L M N O P Q R S T U V W X Y Z # 

Avrl Kadaver Bass tabs (ver.1)

Fake Shark - Real Zombie Tabs
 Rating:
4/5 (4 votes)
Avrl Kadaver lessons Tabs too difficult? Try these video lessons and learn fast
                

Intro:1x
G-------------------|
D-----777-------777-|
A-5--------5--5-----|
E-------------------|

Verse:4x                      
G-----------------------------|
D---3-----2---------3-----2---|
A-5---0-4---0-5-0-5---0-4---0-|
E-----------------------------|

Chorus:1x                                (Play After 1x)
G----------------------------------------|-----------|
D--------------3-----2---------3-----2---|-----------|
A------1111--5---0-4---0-5-0-5---0-4---0-|------1111-|
E-3333-----------------------------------|-3333------|

Post-Chorus:1x
G-----------------------------7777-8888-10101010-12121212-|
D-12121212-10101010-8888-77777----------------------------|
A---------------------------------------------------------|
E---------------------------------------------------------|

Play Intro:1x
Verse:4x
Chorus:1x

Chorus Break:1x
G--------------------------------------------------------|
D--------------------------------------------------------|
A--------------------------------------------------------|
E-3(ring)-2-3-6--5---3(ring)-2-3-6--5--3(ring)---6(ring)-|

Play Verse:2x

2nd Pre-Chorus:1x
G-----------------------------------------------------|
D-12121212-10101010-8888-77777------------------------|
A-----------------------------10101010-8888-7777-5555-|
E-----------------------------------------------------|

G------------------------------7777-8888-10101010-12121212-14(ring)-|
D-12121212-10101010-8888-77777--------------------------------------|
A-------------------------------------------------------------------|
E-------------------------------------------------------------------|

Bridge:1x
G--------------------------------------10-10-10-9-9-9-|
D-12-12-121212----------------------------------------|
A-------------13-13-131313-10-10-101010---------------|
E-----------------------------------------------------|

G------------------------------------------------|
D-12-12-121212-------------10-10-101010-11-11-11-|
A-------------13-13-131313-----------------------|
E------------------------------------------------|

G-----------------------------------------10-10-10----------|
D-12-12-1212-12------------------------------------10-10-10-|
A--------------13-13-1313-13-10-10-1010-10------------------|
E-----------------------------------------------------------|

G-------------------------------------------------|
D-12-12-1212-12-------------10-10-101010-11-11-11-|
A--------------13-13-131313-----------------------|
E-------------------------------------------------|

Outro: Play Verse 4x
            
Submit corrections

comments powered by Disqus
↑ Back to top | Fake Shark - Real Zombie Bass for Avrl Kadaver. Lyrics for acoustic guitar and electric guitar. Tablatures and chords are parodies/interpretations of the original songs. You may use it for private study, scholarship, research or language learning purposes only