» » »

Angel Lust Bass tabs (ver.1)

Artists:  A B C D E F G H I J K L M N O P Q R S T U V W X Y Z # 

Angel Lust Bass tabs (ver.1)

Fake Shark - Real Zombie
Rating:
5/5 (1 vote)

Hard to play? Try these video lessons and learn fast.
                
Intro:1x
G-----------------|
D-----------------|
A-3(ring)---------|
E---------5(ring)-|

Verse:1x
G-------------------------------------------|
D---------------------------------------7-7-|
A-77-7-7--77-7-7--77-7-7--7-7-9-9-10-10-----|
E-------------------------------------------|

G------------------------------------------------------|
D-1010-10-10--10-9-77-7-7------------------------------|
A-------------------------5-77-7-7--5-77-99-10----7----|
E----------------------------------------------10---10-|

G-------------------------------------------------------------------------|
D--------------------5-7--------------------------------------------------|
A------------------------5-77-7-5-77-7-5-7-5------------------------------|
E-88-8-88-77-55-5-5-------------------------8-7-5--88-8--8-8-7-7-55555555-|


Chorus:2x
G-----------------------------------------------------------|
D-------------------------------------------7-7-7-7-9-9-9-9-|
A-7-7--7-10-10--10-5-5-5-5-7-7--7-10-10--10-----------------|
E-----------------------------------------------------------|

Post-Chorus:1x
G--------------------------------|
D--------------------------------|
A-77-7-7--77-7-7--77-7-7--77-7-7-|
E--------------------------------|

Verse:1x
Chorus:4x

Bridge:4x
G--------------------------|
D-10(ring)-7(ring)---------|
A------------------7(ring)-|
E--------------------------|

Post-Bridge:1x
G----------------------------------------------------------|
D----------------------------------------------------------|
A-77-7-7--77-7-7--77-7-7--7-5------------------------------|
E-----------------------------8-7-5--88-8--8-8-7-7-55-5-55-|

Chorus:4x
            
Hard to play? Try these video lessons and learn fast. | Correct




comments powered by Disqus
↑ Back to top | Tablatures and chords are parodies/interpretations of the original songs. You may use it for private study, scholarship, research or language learning purposes only