» » »

The Familiar Tabs (ver.1)

Artists:  A B C D E F G H I J K L M N O P Q R S T U V W X Y Z # 

The Familiar Tabs (ver.1)

Faker
Rating:
3/5 (1 vote)

Tabs too difficult? Try these video lessons and learn fast.
                -------------------------------------------------------------------------------
-------------------------------------------------------------------------------
This is pretty much ilikepie's tab, i just fixed the chorus chords a little and added 
interlude, spose its not 100%, theres another guitar piece in the chorus someone might 
look at.

s: slide

Tuning: standard

Intro/Verse Riff:

E|-------0-----0-----0--------|
B|---4-----4-----4-----4---4--|
G|-4---4-----4-----4-----4----|
D|----------------------------|X4
A|----------------------------|
E|----------------------------|

Verse
B

Chorus
B       C#m     G#m     F#

Chorus riff
E|-------0-----0-----0-------------0-----0-----0--------|
B|---4-----4-----4-----4---4---5-----5-----5-----5---5--|
G|-4---4-----4-----4-----4---6---6-----6-----6-----6----|
D|------------------------------------------------------|
A|------------------------------------------------------|
E|------------------------------------------------------|

E|-------4-----4-----4-------------2-----2-----2--------|
B|---4-----4-----4-----4---4---2-----2-----2-----2---2--|
G|-4---4-----4-----4-----4---3---3-----3-----3-----3----|
D|------------------------------------------------------|
A|------------------------------------------------------|
E|------------------------------------------------------|

Interlude:
B

Interlude Riff:
E|-7-----7-----7----7---7s9-----|
B|---7-----7-----7--------------|
G|------------------------------|
D|------------------------------|X3
A|------------------------------|
E|------------------------------|

E|-7-----7-----7----7---7s9---0--0--0--0----0--0--0--0--|
B|---7-----7-----7------------7--5--4--2----7--5--4--2--|
G|------------------------------------------------------|
D|------------------------------------------------------|
A|------------------------------------------------------|
E|------------------------------------------------------|

Play whole Interlude twice

Finish on some spiritedly strummed B chords.
===============================================================================
            
Tabs too difficult? Try these video lessons and learn fast.




comments powered by Disqus
↑ Back to top | Tablatures and chords are parodies/interpretations of the original songs. You may use it for private study, scholarship, research or language learning purposes only