» » »

Faker, Hurricane Tabs (ver.1)

Artists:  A B C D E F G H I J K L M N O P Q R S T U V W X Y Z # 

Hurricane Tabs (ver.1)

Faker Tabs
 Rating:
4.3/5 (6 votes)
Hurricane lessons Tabs too difficult? Try these video lessons and learn fast
                

The intros just palm muted on the B chord, e.g. play the B chord but only 
rest it on the strings dont
play into the frets so it makes a muted sound, not the chord



verse
e|------x--------------------------------------------------------------------|
B|------x--------------------------------------------------------------------|
G|--4-4-x-----------------2-2-2-2-2-2----4-4---------------------------------|
D|--4-4-x-----------------2-2-2-2-2-2----4-4---------------------------------|
A|--2-2-x-----------------0-0-0-0-0-0----2-2---------------------------------|
E|------x-----------------5-4-2-0--------------------------------------------|

Keep Playing Until Chorus



CHORUS

                      B                             C#m
Cause hurricane went to school-la-la-la, oo-la-la-la, oo-la-la-la
A                       B                         C#m
Hurricane breaks the rules-la-la-la, oo-la-la-la, oo-la-la-la
A                  B                            C#m
Hurricane makes it good-la-la-la, oo-la-la-la, oo-la-la-la
A                  B                                    C#m    A
Hurricane knew you would, knew you would yeah knew you would



e|------x--------------------------------------------------------------------|
B|------x--------------------------------------------------------------------|
G|--4-4-x-----------------2-2-2-2-2-2----4-4---------------------------------|
D|--4-4-x-----------------2-2-2-2-2-2----4-4---------------------------------|
A|--2-2-x-----------------0-0-0-0-0-0----2-2---------------------------------|
E|------x-----------------5-4-2-0--------------------------------------------|

then the verse again and chorus
            
Submit corrections

comments powered by Disqus
↑ Back to top | Faker Tabs for Hurricane. Lyrics for acoustic guitar and electric guitar. Tablatures and chords are parodies/interpretations of the original songs. You may use it for private study, scholarship, research or language learning purposes only