» » »

Faker, Are You Magnetic Tabs (ver.1)

Artists:  A B C D E F G H I J K L M N O P Q R S T U V W X Y Z # 

Are You Magnetic Tabs (ver.1)

Faker Tabs
 Rating:
4.3/5 (6 votes)
Are You Magnetic lessons Tabs too difficult? Try these video lessons and learn fast
                -------------------------------------------------------------------------------
                             Are You Magnetic? - Faker
-------------------------------------------------------------------------------

I was surprised that such an awesome song was not already tabbed.
enjoy :)

Tuning: standard (EADGBe)

Into/verses

e|---------------------------------------------------------------------------|
B|---------------------------------------------------------------------------|
G|--------------6--6-----------------------4--4------------------------------|
D|--------7-----------7--------------5-----------5---------------------------| 
A|--5--5-----5-----------5-----3--3-----3-----------3------------------------|
E|---------------------------------------------------------------------------|

end of verse

e|---------------------------------------------------------------------------|
B|---------------------------------------------------------------------------|
G|-------------6--6-----------------------4----------------------------------| 
D|-------7-----------7-------------5------5----------------------------------|
A|--5--5---5------------5-----3--3---3----3----------------------------------|
E|---------------------------------------------------------------------------|

Chorus

e|---------------------------------------------------------------------------|
B|---8-8-8-8-8-8-8-8--7-7-7-7-7-7-7-7--5-5-5-5-5-5-5-5-5-5-5-5-5-5-5-5-------|
G|---------------------------------------------------------------------------|
D|---5-5-5-5-5-5-5-5--4-4-4-4-4-4-4-4--2-2-2-2-2-2-2-2-2-2-2-2-2-2-2-2-------|
A|---------------------------------------------------------------------------|
E|---------------------------------------------------------------------------|

"And We collapse"

e|---------------------------------------------------------------------------|
B|---------------------------------------------------------------------------|
G|--12-------------------------12----------------------12--------------------|
D|--12----9--11--12--14--------12-----9--11--12--9-----12---9--11--12--14----| 
A|--10-------------------------10----------------------10--------------------|
E|--------7--9---10--12---------------7--9---10--7----------7--9---10--12----|

e|---------------------------------------------------------------------------|
B|---------------------------------------------------------------------------|
G|---------------------------------------------------------------------------|
D|---5-5-5-5-5-5-5-5-5-------------------------------------------------------|
A|---5-5-5-5-5-5-5-5-5-------------------------------------------------------|
E|---7-7-7-7-7-7-7-7-7-------------------------------------------------------|

Last verse (quiet a bit of variation....one example its below, just have fun with it)

e|--------------------------------------------3------------------------------|
B|-----------------------------------------------3---------------------------|
G|--------------6--6-----------------------4--------4------------------------|
D|--------7-----------7--------------5---------------------------------------| 
A|--5--5-----5-----------5-----3--3-----3------------------------------------|
E|---------------------------------------------------------------------------|

solo over last chorus

e|--15-14---------12-14-15-14----------12-14-15-14---------------------------|
B|--------17-15---------------17-14----------------17-15-15-15-15-15---------|
G|---------------------------------------------------------------------------|
D|---------------------------------------------------------------------------|
A|---------------------------------------------------------------------------|
E|---------------------------------------------------------------------------|

Coda

e|---------------------------------------------------------------------------|
B|---------------------------------------------------------------------------|
G|---------------------------------------------------------------------------|
D|--5--4-2-------------------------------------------------------------------|
A|--5--2-2-------------------------------------------------------------------|
E|--3--2-0-------------------------------------------------------------------|


| /  slide up
| \  slide down
| h  hammer-on
| p  pull-off
| ~  vibrato
| +  harmonic
| x  Mute note
===============================================================================
            
Submit corrections

comments powered by Disqus
↑ Back to top | Faker Tabs for Are You Magnetic. Lyrics for acoustic guitar and electric guitar. Tablatures and chords are parodies/interpretations of the original songs. You may use it for private study, scholarship, research or language learning purposes only