» » »

All Over Tabs (ver.1)

Artists:  A B C D E F G H I J K L M N O P Q R S T U V W X Y Z # 

All Over Tabs (ver.1)

Faker
Rating:
0/5 (0 votes)
Tabs too difficult? Try these video lessons and learn fast.
                Ok this is my first tab and i just wrote it as i am typing it now sooo i hope it 
doesnt suck and yea....

E------------------------------------------------------|
B------------------------------------------------------|
G------------------------------------------------------|
D-------------------------------------------------4----|
A----9---10--11-----------------------------------2----|
E--7---8---9----9h11p9-8----3-2-0-----------------3----|6 times

solo
                           (very fast part)
E-----------6-)-6b12b6---6h8-8b12-)12h14-13h14h15-12h14-13h14h15-| 3 times
B---------7---)-------------------)------------------------------|
G-------6-----)-------------------)------------------------------|
D-----5-------)-------------------)------------------------------|
A---7---------)-------------------)------------------------------|
E-0-----------)-------------------)------------------------------|
end solo

E---------------------------------------------------------------|
B---------------------------------------------------------------|
G---------------------------------------------------------------|FAST
D-------------13-----------------13-----------------13----------|
A--------11-13--------------11-13--------------11-13------------|
E--12-11--------------12-11--------------12-11------------------|3 times

Outro

E-0------------------------------------0------------------|
B-0------------------------------------0------------------|
G-0------------------------------------0------------------|
D-0------------------------------------0------------------|
A-0------------------------------------0------------------|
E-0-----1-2b13-14-15-14-13-12b2-1------0------------------|
            
Tabs too difficult? Try these video lessons and learn fast.


comments powered by Disqus
↑ Back to top | Tablatures and chords are parodies/interpretations of the original songs. You may use it for private study, scholarship, research or language learning purposes only