» » »

Faith No More, We Care A Lot Tabs (ver.1)

Artists:  A B C D E F G H I J K L M N O P Q R S T U V W X Y Z # 

We Care A Lot Tabs (ver.1)

Faith No More Tabs
Rating:
0/5 (0 votes)
We Care A Lot lessons Tabs too difficult? Try these video lessons and learn fast
                Tab Guide:
h = hammer on
p = pull off
\ = slide down
/ = slide up
| = Bar
||   ||
||: :||
||   || = repeat marks, times two unless otherwise indicated 
||   ||
||: :||
||   ||

This is my first guitar tab, hope you find it useful


Intro

e|                |--------------|e|                |----------------------|
B|                |--------------|B|                |----------------------|
G|                |--------------|G|                |------------12-----12-|
D|<----3 bars---->|--------------|D|<----3 bars---->|------------12-----12-|
A|                |--------5h7---|A|                |----------------------|
E|                |------------0-|E|                |--------0-0----0-0----|

e|--------------------------------|
B|--------------------------------|
G|--------------------------------|
D|--------------------------------|
A|----5h7-----5h7-----5h7---------|
E|0-0-----0-0-----0-0-----0-0-0-0-|

Verse

e|               |------------------------|--------------------------------|
B|               |------------------------|--------------------------------|
G|               |------------12-----12---|--------------------------------|
D|<----7 bars--->|------------12-----12---|--------------------------------|
A|               |------------------------|--------------------------------|
E|               |--------0-0----0-0----0-|0-0-0-0-0-0-0-0-0-0-0-0-0-0-0-0-|

e|| ---------------------------------- ||
B||:----------------------------------:||
G|| ---------------------------------- ||
D|| ---------------------------------- ||
A||:------------------------------5h7-:||
E|| 0-0-0-0-0-0-0-0-0-0-0-0-0-0-0----- ||

e|--------------------------------|--------------|
B|--------------------------------|--------------|
G|--------------------------------|9-9-12-9-9-12-|
D|--------------------------------|9-9-12-9-9-12-|
A|--------------------------------|--------------|
E|0-0-0-0-0-0-0-0-0-0-0-0-0-0-0-0-|--------------|

Chorus

Guitar one
e|------------------------|
B|------------------------|
G|------------------------|
D|------------------------|
A|-----------------5--5-5-|
E|0---0-0-0---5--5--------|
     |-----|
     tremolo

Guitar 2 (All the choruses comprise of mainly these licks, listen to it to work out what goes where).
e|------------|------------------------|-------10~-|
B|------------|------7-5---4-5---4-5---|------10---|
G|4h5p4---4---|--4-7-----7-----7-----7-|-----9-----|
D|------7---7-|5-----------------------|7--/9------|
A|------------|------------------------|-----------|
E|------------|------------------------|-----------|
                                           |-----| 
                                            sweep
Ending

e|------------------------------|
B|------------------------------|
G|------------------------------|
D|------------------------------|
A|----5h7-----5h7-----5h7-------|
E|0-0-----0-0-----0-0-----0-0-0-|
            

comments powered by Disqus
↑ Back to top | Faith No More Tabs for We Care A Lot. Lyrics for acoustic guitar and electric guitar. Tablatures and chords are parodies/interpretations of the original songs. You may use it for private study, scholarship, research or language learning purposes only