» » »

Take This Bottle Tabs (ver.1)

Artists:  A B C D E F G H I J K L M N O P Q R S T U V W X Y Z # 

Take This Bottle Tabs (ver.1)

Faith No More
Rating:
0/5 (0 votes)

Hard to play? Try these video lessons and learn fast.
                This is not the exact guitar from the song.
To play the real guitar just strum the chords G and C for the verses,
and play the chorus as written.
In this tab I mixed the guitar and bass notes together.
This makes it ideal for playing acoustic.
(its easy and its right, have fun)

(verse)
|1-2-3-4-1-2-3-4-|1-2-3-4-1-2-3-4-|
[G]              [C]
|3-----------3-3-|0-----0-----0---|
|0-----------0-0-|1-----1-----1---|
|0-----------0-0-|0-----0-----0---|
|0-----------0-0-|2-----2-----0---|
|2-----------0-2-|3-----3-----3---|
|3-----------3-3-|------3-----3---|

(chorus)
|1-2-3-4-1-2-3-4-|1-2-3-4-1-2-3-4-|
[Em]        [D]  [G]   
|0-----------2---|3---------------|
|0-----------3---|0---------------|
|0-----------2---|0---------------|
|2-----------0---|0---------------|
|2---------------|2---------------|
|0---------------|3-----3-2---1---|
====
            
Hard to play? Try these video lessons and learn fast. | Correct




comments powered by Disqus
↑ Back to top | Tablatures and chords are parodies/interpretations of the original songs. You may use it for private study, scholarship, research or language learning purposes only