» » »

Midlife Crisis Tabs (ver.4)

Artists:  A B C D E F G H I J K L M N O P Q R S T U V W X Y Z # 

Midlife Crisis Tabs (ver.4)

Faith No More
Rating:
0/5 (0 votes)

Tabs too difficult? Try these video lessons and learn fast.
                Hey Not Many Tabs For This Song So I Had A Go.This Is My !st Tab So I May Be Wrong Some Places

verse one(you play this alot)
Go on and wring my neck Like when a rag gets wet and so on

e|---------------|
B|---------------|
G|---------------|
D|---------------|
A|---------------|
E|---------------|


chorus

Sense of security Like pockets jingling

e|---------------|
B|---------------|
G|---------------|
D|---------------|
A|---------------|
E|---------------|

you play this a few times then

You're perfect, yes, it's true But without me you're only you

e|------------------------|
B|------------------------|
G|------------------------|
D|----7-5-----7-5-----7-5-|
A|-2--5-3--2--5-3--2--5-3-|
E|-0-------0-------0------|


It ain't bleeding enough for two(this part im not so sure this is as close i got sorry)

e|---------------|
B|---------------|
G|---------------|
D|---------------|
A|-7-7-7-7-7-7-7-|
E|-5-5-5-5-5-5-5-|
 pm  . . . . .

It's a midlife crisis.. It's a midlife crisis..

e|---------------------|
B|---------------------|
G|---------------------|
D|---------------------|
A|-2-5-5-5-7-7-7-5-5-5-|
E|-0-3-3-3-5-5-5-3-3-3-|
     ^ ^ ^ ^ ^ ^ ^ ^ ^
(you play these parts really fast)

e|---------------|
B|---------------|
G|---------------|
D|---------------|
A|-2-5-5-5-7-7-7-|
E|-0-3-3-3-5-5-5-|


verse is the same as before but still

What an inheritance The salt and the kleenex
e|---------------------|
B|---------------------|
G|---------------------|
D|---------------------|
A|-2-5-5-5-7-7-7-5-5-5-|
E|-0-3-3-3-5-5-5-3-3-3-|


e|---------------|
B|---------------|
G|---------------|
D|---------------|
A|-2-5-5-5-7-7-7-|
E|-0-3-3-3-5-5-5-|

chorus

same as verse cept noted r played once
Sense of security Holding blunt instrument

e|---------------|
B|---------------|
G|---------------|
D|---------------|
A|-2-5-7-5-2-5-7-|
E|-0-3-5-3-0-3-5-|

then this part again

You're perfect, yes, it's true But without me you're only you

e|------------------------|
B|------------------------|
G|------------------------|
D|----7-5-----7-5-----7-5-|
A|-2--5-3--2--5-3--2--5-3-|
E|-0-------0-------0------|

then the part im not sure off...

e|---------------|
B|---------------|
G|---------------|
D|---------------|
A|-7-7-7-7-7-7-7-|
E|-5-5-5-5-5-5-5-|
 pm  . . . . .

then there is a koyboard solo or something


e|---------------|
B|---------------|
G|---------------|
D|---------------|
A|---------------|
E|---------------|

then It's a midlife crisis...

e|-----------|
B|-----------|
G|-----------|
D|-----------|
A|-2-7-5-2-7-|
E|-0-5-3-0-5-|

then its back to You're perfect, yes, it's true But without me you're only you

e|------------------------|
B|------------------------|
G|------------------------|
D|----7-5-----7-5-----7-5-|
A|-2--5-3--2--5-3--2--5-3-|
E|-0-------0-------0------|


It ain't bleeding enough for two

e|---------------|
B|---------------|
G|---------------|
D|---------------|
A|-7-7-7-7-7-7-7-|
E|-5-5-5-5-5-5-5-|
pm   . . . . .

untill fade out

Enjoy :)
            
Tabs too difficult? Try these video lessons and learn fast.




comments powered by Disqus
↑ Back to top | Tablatures and chords are parodies/interpretations of the original songs. You may use it for private study, scholarship, research or language learning purposes only