>
 >
Jizzlobber

Jizzlobber Bass Tabs

Faith No More - Jizzlobber chords, tabs, tablatures, lyrics

Guitar lessons | Add/correct | Request | Top 50 tabs Artists:  A B C D E F G H I J K L M N O P Q R S T U V W X Y Z 0-9

Jizzlobber Bass Tabs – Faith No More

CD, Sheet music, Poster

Do you like Jizzlobber? Share with your friends now
Bass TabsTabsTabs v2
Faith No More
Jizzlobber

   w     w  3x h h     w  +h h   w  +h q E s   w  +h q q   w   h q E s
---r-||--r--||-r---||----|-----|---|-----r---|---|-------|---|-----r----||
4:-e-||*-e-*||-e---||*---|-----|---|-----e---|---|-------|---|-----e---*||
4:-s-||*-s-*||-s-4-||*-3-|-3-4-|-1-|-1---s-4-|-3-|-3-4---|---|-2---s-4-*||
---t-||--t--||-t---||----|-----|---|---0-t---|---|-----2-|-1-|---0-t----||
   W/ swamp sounds     1st Verse                                           

  w  +h h   w  +h q E s   w  +h q q   w   h h     s s s s q s s s s q  7x
|---|-----|---|-----r---|---|-------|---|-----||----------r---------r--||
|---|-----|---|-----e---|---|-------|---|-----||*---------e---------e-*||
|-3-|-3-4-|-1-|-1---s-4-|-3-|-3-4---|---|-2---||*---------s---------s-*||
|---|-----|---|---0-t---|---|-----2-|-1-|---1-||--0-0-0-0-t-0-0-0-0-t--||

  s s s s q s s s s q   w  +h h   w  +h q E s   w  +h q q   w   h q E s
|---------r-----------|---|-----|---|-----r---|---|-------|---|-----r---|
|---------e-----------|---|-----|---|-----e---|---|-------|---|-----e---|
|---------s---------4-|-3-|-3-4-|-1-|-1---s-4-|-3-|-3-4---|---|-2---s-4-|
|-0-0-0-0-t-0-0-0-0---|---|-----|---|---0-t---|---|-----2-|-1-|---0-t---|
                       2nd Verse

  w  +h h   w  +h q E s   w  +h q q   w   h h     s s s s q s s s s q  7x
|---|-----|---|-----r---|---|-------|---|-----||----------r---------r--||
|---|-----|---|-----e---|---|-------|---|-----||*---------e---------e-*||
|-3-|-3-4-|-1-|-1---s-4-|-3-|-3-4---|---|-2---||*---------s---------s-*||
|---|-----|---|---0-t---|---|-----2-|-1-|---1-||--0-0-0-0-t-0-0-0-0-t--||

  s s s s q s s s s q       s s s s e e s s s s e e  4x  Q Q q  +e Q q e e  3x
|---------r-------------||------------r-----------r--||--------|------------||
|---------e-------------||*-----------e-----------e-*||*-------|-----------*||
|---------s---------7\--||*-----------s-----------s-*||*-4-7-6-|-6---------*||
|-0-0-0-0-t-0-0-0-0-----||--0-0-0-0-0-t-0-0-0-0-0-t--||--------|---2-1-1-1--||

  Q Q q  +e Q s s e s s e       Q Q H     W  3x Q Q+H  +W   Q Q+H  +W
|-------|---------r-----r-----|---r-r-||--r--||-------|---|-------|---|
|-------|---------e-----e-12:-|---e-e-||*-e-*||-------|---|-------|---|
|-4-7-6-|-6-5-4-4-s-4-4-s-8-:-|-3-s-s-||*-s-*||-4-3-3-|-3-|-2-1-1-|-1-|
|-------|---------t-----t-----|---t-t-||--t--||-------|---|-------|---|

    Q Q+H  +W   Q Q+H  +W  2x  W   W  2x  Q Q q  +e Q q e e  16xQ Q q
||--------|---|-4-3-3-|-3--||----|----||--------|------------||-------|
||*-------|---|-------|---*||*---|---*||*-------|-----------*||-------|
||*-4-3-3-|-3-|-------|---*||*-5-|-7-*||*-4-7-6-|-6---------*||-4-7-6-|
||--------|---|-------|----||----|-0--||--------|---2-1-1-1--||-------|
                                        Outro (begin fade 13th time)

 +e Q s s e s s e   w          Rest
|---------r-----r-|---|-------------------||
|---------e-----e-|---|--Organ and Choir--||
|-6-5-4-4-s-4-4-s-|-3-|-------------------||
|---------t-----t-|---|-------------------||


================================================================================
1. Credits

All songs by Faith No More except Midnight Cowboy:  by John Barry, 
Performed by Faith No More.  From the album Angel Dust and the maxi-
single Songs To Make Love To.  (C) 1969 EMI U Catalog Inc./Barwin 
Music, Inc. This Arrangement (C) 1992  EMI U Catalog Inc./Barwin 
Music, Inc. (ASCAP)

All transcriptions by Joe White except "A Small Victory" which appeared 
in Guitar For The Practicing Musician, Sept. 1992.  This transcription 
was re-tabbed, as the origional had too many nuances that needn't be
transcribed.

Joe White claims no copyright on these tabs, the copyright belongs to 
Faith No More's publishing company.  Feel free to use these files, edit 
them, etc.  Just give credit to me, like this:


================================================================================
2.  Tablature Explanation
  ===========================================================================
  ==                               All Songs                               ==
  ==             created with a demo version of BUCKET O' TAB              ==
  ==                tablature creation software for Windows                ==
  ==                                                                       ==
  ==                                                                       ==
  ==                         TABLATURE EXPLANATION                         ==
  ===========================================================================

  ----------                ----------                ----t---
  ----5h8--- Hammeron       ----(8)--- Ghost          ----6--- Tap
  ----------                ---------- Note           --------
  ----5p8--- Pulloff        ----------                --------

  ----------                ----------                -----p--
  ----5/8--- Slide Up       -----x---- Dead           -----7-- Pop
  ----------                ---------- Note           --s-----
  ----5\8--- Slide Down     ----------                --5----- Slap 

  ----------                ||------|| Repeat         --------
  ----5~~~-- Vibrato        ||*----*||                ---5^--- Bend
  ----------                ||*----*||                -------- (up, one step)
  ----------                ||------||                --------
                                                         (1)
                             tr~~
  ----------                ---------- Trill to       --------
  -4:------- Time           ---------- note in        ---5^--- Bend
  -4:------- Signature      -0(1)----- parenthesis    -------- (up, 1/2 step)
  ----------                ----------                --------
                                                       (1/2)

Rhythm:
  w = whole note            W = dotted whole
  h = half note             H = dotted half
  q = quarter note          Q = dotted quarter
  e = eighth note           E = dotted eighth
  s = sixteenth note        S = dotted sixteenth
  t = 32nd note             T = dotted 32nd
  x = 64th note             X = dotted 64th
  ^ = triplet               + = tie to previous note





Comments


Popular Faith No More tabs & chords
Land Of Sunshine 1 Bass Tabs
Malpractice 2 Bass Tabs
Stripsearch 1 Bass Tabs
The Gentle Art Of Making Enemies Bass Tabs
Underwater Love 1 Bass Tabs
Easy Chords
Helpless Tabs
King For A Day Tabs
Last Cup Of Sorrow Tabs
Surprise 1 Tabs


Song lyrics



↑ Back to top | Tablatures and chords are parodies/interpretations of the original songs. You may use it for private study, scholarship, research or language learning purposes only
© 2014 AZChords.com Contact us | Privacy policy | DMCA | Add/correct tabs | Request tabs | Top 50 tabs