» » »

Got That Feeling Tabs (ver.1)

Artists:  A B C D E F G H I J K L M N O P Q R S T U V W X Y Z # 

Got That Feeling Tabs (ver.1)

Faith No More
Rating:
0/5 (0 votes)

Hard to play? Try these video lessons and learn fast.
                
i dont know how to play the intro...

chorus Riff 1
-------------------------------|
-------------------------------|
-------------------------------| Play 2x
--4-x-7-x-7-x-7-x-x-x-x-x-x----|
--4-x-7-x-7-x-7-x-x-x-x-x-x----|
--2-x-5-x-5-x-5-x-x-x-x-x-x----|


chorus Riff 2
-------------------------------|
-------------------------------|
-------------------------------| Play once, then prevous riff
--4-x-7-x-7-x-7-x-8-7----------|
--4-x-7-x-7-x-7-x-8-7----------|
--2-x-5-x-5-x-5-x-6-5----------|

Bridge

------------------------------------|
------------------------------------|
------------------------------------| Play 2x
------------------------------------| pick quite fast
-------------2--3-------------4--3--|
-0--2--4--5--------0--2--4--5-------|

pre verse riff

----------------------------|
----------------------------|
--9-x26---------------------| play once
--9-------------------------|
--7-------------------------|
------0-2-2---2-2-2-3-2-0-2-|
      - - -   - - - - - - -
      pm

verse riff 1

-------------------------------|
-------------------------------|
----9-9------------------------| Play 3x
----9-9------------------------|
----7-7------------------------|
--0-------2-2-2-3-2-0-2--------|
          - - - - - - -
          pm

verse riff 2


----------------------------|
----------------------------|
---9-9----------------------| Play 4x
---9-9----4-4-4-5-4-2-4-----|
---7-7----4-4-4-5-4-2-4-----|
-0--------2-2-2-3-2-0-2-----|
 -

PM

Outro

----------------------------|
----------------------------|
--9-x26---------------------|
--9---4--5--4--2------------|
--7---4--5--4--2------------|
------2--3--2--0------------|
            
Hard to play? Try these video lessons and learn fast. | Correct




comments powered by Disqus
↑ Back to top | Tablatures and chords are parodies/interpretations of the original songs. You may use it for private study, scholarship, research or language learning purposes only