» » »

Easy Tabs (ver.6)

Artists:  A B C D E F G H I J K L M N O P Q R S T U V W X Y Z # 

Easy Tabs (ver.6)

Faith No More
Rating:
4/5 (3 votes)
Tabs too difficult? Try these video lessons and learn fast.
                                               Faith No More
                                   Easy

Hi, this is the tab for the solo of Easy by Faith No More.
It is played in standard tuning. The meanings of symbols can be found below 
the tab. Special notes for playing are above the tab. Enjoy!


Overdriven/distorted guitar w. delay                         

|----------------------------------|----------------------------------|
|----------------------------------|----------------------------------|
|-----------------------------/21--|----------------------------------|
|----------------13~~~~~~~~--------|----------------------------------|
|--pb14r13--11---------------------|--pb14r13--11--11~~~~~~~~(11)-----|
|----------------------------------|-----------------------------13\--|
                               .

|----------------11b12-----------------------------|
|-----------------------11b13--9-------------------|
|---------------------------------11--10--8--------|
|----------------------------------------------10--|
|--pb14r13----11-----------------------------------|
|--------------------------------------------------|
                     .      .  .   .   .

                    hold a bit, then dip the tremolo bar
|-----------------------------------|
|-----------------------------------|
|--10p8-----------------------------|
|--------8--------------\/\/\/\/\/--|
|-----------------------------------|
|-----------------------------------|

|----------------------------------|----------------------------------|
|----------------------------------|----------------------------------|
|-----------------------------/21--|----------------------------------|
|----------------13~~~~~~~~--------|----------------------------------|
|--pb14r13--11---------------------|--pb14r13--11--11~~~~~~~~~~-------|
|----------------------------------|-----------------------------13\--|
                               .

|----------------11b12--11--11b12-----------11---------|
|----------------------------------11b13--------11b13--|
|------------------------------------------------------|
|------------------------------------------------------|
|--pb14r13----11---------------------------------------|
|------------------------------------------------------|
                     .   .     .

|----------------------------------|------------11b12----11~~~~~------|
|--11b13r11p9----------------------|----------------------------------|
|--------------10------8h10--8h10--|--8h10p8--------------------------|
|----------------------------------|-----------------------------11\--|
|----------------------------------|-----------------------------11\--|
|----------------------------------|----------------------------------|

               __________________________________
               |h= hammer-on                    |
               |p= pull-off                     |
               |b= bend                         |
               |pb= prebend                     |
               |r= release bend                 |
               |~= vibrato                      |
               |\/= tremolo bar dip             |
               |/= slide up                     |
               |\= slide down                   |
               |.= the note above it is staccato|
               |()= quiet note                  |

And that's it! Hope you like it (it is my first tab anyway).
If you need to say something, please comment!
            
Tabs too difficult? Try these video lessons and learn fast.


comments powered by Disqus
↑ Back to top | Tablatures and chords are parodies/interpretations of the original songs. You may use it for private study, scholarship, research or language learning purposes only