>
 >
Cuckoo For Caca

Cuckoo For Caca Bass Tabs

Faith No More - Cuckoo For Caca chords, tabs, tablatures, lyrics

Guitar lessons | Add/correct | Request | Top 50 tabs Artists:  A B C D E F G H I J K L M N O P Q R S T U V W X Y Z 0-9

Cuckoo For Caca Bass Tabs – Faith No More

CD, Sheet music, Poster

Do you like Cuckoo For Caca? Share with your friends now
Bass Tabs


          w  +Q s s q q  4x     w  +Q s s q q  3x s e s s e s s e s s e s
Gb----||----|------------||-||----|------------||-------------------------|
Db-4:-||*---|-----------*||-||*---|-----------*||-------------------------|
Ab-4:-||*---|-----------*||-||*---|-----------*||-------------------------|
Eb----||--0-|-0-x-x-1-3--||-||--0-|-0-x-x-1-3--||-0-0-x-0-0-x-0-0-x-0-0-x-|
                                 1st Verse                                      

  s e s s e s s s q e     s s s s s s s s s s s s s s s s   s s s s s s s s
|---------------------||------r---r-------r---r-----------|-----r---r------
|---------------------||*-----e---e-------e---e-----------|-----e---e------
|---------------------||*-----s---s-------s---s-----------|-----s---s------
|-0-0-x-0-0-x-0-0-3-5-||--1-0-t-0-t-0-1-0-t-0-t-0-1-0-3-0-|-1-0-t-0-t-0-1-0
                            Chorus

  s s q e  4x    w  +Q s s q q  2x     w  +Q s s q q  4x s e s s e s s e s
|---------||-||----|------------||-||----|------------||------------------
|--------*||-||*---|-----------*||-||*---|-----------*||------------------
|--------*||-||*---|-----------*||-||*---|-----------*||------------------
|-0-0-3-5-||-||--0-|-0-x-x-1-3--||-||--0-|-0-x-x-1-3--||-0-0-x-0-0-x-0-0-x
                                          2nd Verse

  s e s   s e s s e s s s q e     s s s s s s s s s s s s s s s s   s s s s
|-------|---------------------||------r---r-------r---r-----------|-----r--
|-------|---------------------||*-----e---e-------e---e-----------|-----e--
|-------|---------------------||*-----s---s-------s---s-----------|-----s--
|-0-0-x-|-0-0-x-0-0-x-0-0-3-5-||--1-0-t-0-t-0-1-0-t-0-t-0-1-0-3-0-|-1-0-t-0
                                    Chorus                                      

  s s s s s s q e 4x s s s s s s s s s s s s s s e  4x     s s s s s s s s
|-r---------------||--------------------------------||-||-----------------
|-e--------------*||---7-----7-----7-----7---------*||-||*----------------
|-s--------------*||-0---6-5---6-5---6-5---6-5-0-6-*||-||*-0-7-6-0-7-6-0-7
|-t-0-1-0-0-0-3-5-||--------------------------------||-||-----------------
                        Interlude

  s s s s s s s s  4x     w  +Q s s q q  4x q H  +Q s s q q     w  +Q s s q
|------------------||-||----|------------||-r---|-----------||----|--------
|-----------------*||-||*---|-----------*||-e---|-----------||*---|--------
|-6-0-7-6-0-0-3-5-*||-||*---|-----------*||-s---|-----------||*---|--------
|------------------||-||--0-|-0-x-x-1-3--||-t-0-|-0-x-x-1-3-||--0-|-0-x-x-1
                                              3rd Verse

  q  2x s e s s e s s e s s e s   s e s s e s s s q e     s s s s s s s s s
|----||-------------------------|---------------------||------r---r-------r
|---*||-------------------------|---------------------||*-----e---e-------e
|---*||-------------------------|---------------------||*-----s---s-------s
|-3--||-0-0-x-0-0-x-0-0-x-0-0-x-|-0-0-x-0-0-x-0-0-3-5-||--1-0-t-0-t-0-1-0-t
                                                            Chorus

  s s s s s s s   s s s s s s s s s s q e  4x     s s s s s s s s s s s s s
|---r-----------|-----r---r----------------||-||---------------------------
|---e-----------|-----e---e---------------*||-||*---7-----7-----7-----7----
|---s-----------|-----s---s---------------*||-||*-0---6-0---6-0---6-0---6-5
|-0-t-0-1-0-3-0-|-1-0-t-0-t-0-1-0-0-0-3-5--||-||---------------------------
                                                    Outro

  s e  7x s s s s s s s s s s s s e e     s s s s s s s s s s s s s s s s  8x
|------||---------------------------r-||-----------------------------------||
|-----*||---7-----7-----7-----7---7-e-||*---------------------------------*||
|-0-6-*||-0---6-0---6-0---6-0---6---s-||*-0-7-6-0-7-6-0-7-6-0-7-6-0-0-3-5-*||
|------||---------------------------t-||-----------------------------------||

    s s s s s s s s s s s s s s e  2x
|--------------------------------||
|---7-----7-----7-----7---------*||
|-0---6-0---6-0---6-0---6-5-0-6-*||
|--------------------------------||





Comments


Popular Faith No More tabs & chords
Collision 1 Bass Tabs
Stripsearch 1 Bass Tabs
Easy 7 Tabs
Epic Intro Tabs
Get Out Tabs
King For A Day 1 Tabs
Ricochet Tabs
War Pigs Tabs
War Pigs Live Tabs
Zombie Eaters 1 Tabs


Song lyrics



↑ Back to top | Tablatures and chords are parodies/interpretations of the original songs. You may use it for private study, scholarship, research or language learning purposes only
© 2014 AZChords.com Contact us | Privacy policy | DMCA | Add/correct tabs | Request tabs | Top 50 tabs