>
 >
Absolute Zero

Absolute Zero Guitar Tabs

Faith No More - Absolute Zero chords, tabs, tablatures, lyrics

Guitar lessons | Add/correct | Request | Top 50 tabs Artists:  A B C D E F G H I J K L M N O P Q R S T U V W X Y Z 0-9

Absolute Zero Guitar Tabs – Faith No More

CD, Sheet music, Poster

Do you like Absolute Zero? Share with your friends now
Tabs
Intro and bridge chord suggestions:
Em   | x   7   9   9   8   x   |
F#  | x   9  10   9  10   x   |
Em/G | x  10   9   9   8   x   |
A/G  | x  10  11   9  10   x   |


--INTRO AND BRIDGE--

Em       F#        Em/G
Can we begin at the end?
Em F#       A/G
To save some time?


--VERSES--

Main riff:
E-|-----------------------------------------------------------------|
B-|-----------------------------------------------------------------|
G-|-----------------------------------------------------------------|
D-|-----------------------------------------------------------------|
A-|3---3-3-3-3-3---3-3-3-3-2--------3---3-3-3-3-3---3---3---2-------|
E-|1---1-1-1-1-1---1-1-1-1-0--------1---1-1-1-1-1---1---1---0-------|
   pm_____________________          pm___________________


Main riff var 1 (leads to Alt riff)
E-|-----------------------------------------------------------------|
B-|-----------------------------------------------------------------|
G-|-----------------------------------------------------------------|
D-|-----------------------------------------------------------------|
A-|3---3-3-3-3-3---3-3-3-3-2--------3---3-3-3-3-3---3---------------|
E-|1---1-1-1-1-1---1-1-1-1-0--------1---1-1-1-1-1---1---0--/x\------|
   pm_____________________          pm_______________

Alt riff:
E-|-----------------------------------------------------------------|
B-|-----------------------------------------------------------------|
G-|-----------------------------------------------------------------|
D-|-----------------------------------------------------------------|
A-|2-------5~~~~~~~6-------4~~~~~~~-5-------3~~~~~~~4-------2~~~~~~~|
E-|0-------5~~~~~~~6-------4~~~~~~~-5-------3~~~~~~~4-------2~~~~~~~|

Main riff var 2 (leads to chorus):
E-|-----------------------------------------------------------------|
B-|-----------------------------------------------------------------|
G-|-----------------------------------------------------------------|
D-|-----------------------------------------------------------------|
A-|3---3-3-3-3-3---3-3-3-3-2--------3---3-3-3-3-3---3---3---2-------|
E-|1---1-1-1-1-1---1-1-1-1-0--------1---1-1-1-1-1---1---1---0-0-0-0-|
   pm_____________________          pm___________________     pm___


--CHORUS--

 Asus2(add#4)
E-|--------------------------------|----|
B-|4--(4)-(4)-(4)-(4)-(4)-(4)-(4)--|----|
G-|4--(4)-(4)-(4)-(4)-(4)-(4)-(4)--|-./-|
D-|2---2---2---2---2---2---2---2---|-/.-|
A-|0---0---0---0---0---0---0---0---|----|
E-|--------------------------------|----|

 G#5                                          G#sus4   G#5 
E-|--------------------------------|--------------------------------|
B-|--------------------------------|--------------------------------|
G-|8--(8)-(8)-(8)-(8)-(8)-(8)-(8)--|8---8---8---6---6---8---8---x---|
D-|6--(6)-(6)-(6)-(6)-(6)-(6)-(6)--|6---6---6---6---6---6---6---x---|
A-|6---6---6---6---6---6---6---6---|--------------------------------|
E-|4---4---4---4---4---4---4---4---|--------------------------------|

 Asus2(add#4)
E-|--------------------------------|----|
B-|4--(4)-(4)-(4)-(4)-(4)-(4)-(4)--|----|
G-|4--(4)-(4)-(4)-(4)-(4)-(4)-(4)--|-./-|
D-|2---2---2---2---2---2---2---2---|-/.-|
A-|0---0---0---0---0---0---0---0---|----|
E-|--------------------------------|----|

 G#5                    G#(add#9)
E-|--------------------------------|-0------(0)-----(0)-----(0)-(0)--|
B-|------------------------0--(0)--|(0)------0-------0-------0--(0)--|
G-|----------------------------5---|(5)-----(5)-----(5)-----(5)--5---|
D-|6---6---6---6---6------(6)-(6)--|(6)-----(6)-----(6)-----(6)-(6)--|
A-|6---6---6---6---6------(6)-(6)--|(6)-----(6)-----(6)-----(6)-(6)--|
E-|4---4---4---4---4------(4)-(4)--|(4)-----(4)-----(4)-----(4)-(4)--|


--SOLO-- 
(on | Em | F# | Em/G | Em/G | x2)

Clean guitar! Repeat the whole thing.

E-|-----------------------------------------------------------------|
B-|-----------------------------------------------------------------|
G-|9-------9---9------11b(12)-11---|(11)----9*r(8)----------5*r(4)--|
D-|-----------------------------------------------------------------|
A-|-----------------------------------------------------------------|
E-|-----------------------------------------------------------------|


E-|-----------------------------------------------------------------|
B-|-----------------------------------------------------------------|
G-|(4)-----------------------------|(4)-----------------------------|
D-|-----------------------------------------------------------------|
A-|-----------------------------------------------------------------|
E-|-----------------------------------------------------------------|

--ENDING--
E-|------------------------------||
B-|------------------------------||
G-|------------------------------||
D-|------------------------------||
A-|2-----------------------------||
E-|0-----------------------------||





Comments


Popular Faith No More tabs & chords
Epic Bass Tabs
Rv 3 Bass Tabs
She Loves Me Not 1 Bass Tabs
The Morning After 1 Bass Tabs
The Real Thing 1 Bass Tabs
Angel Dust Tabs
Easy (Solo Ver 2) Tabs
Epic Tabs
Epic 2 Tabs
Last Cup Of Sorrow 1 Tabs


Song lyrics



↑ Back to top | Tablatures and chords are parodies/interpretations of the original songs. You may use it for private study, scholarship, research or language learning purposes only
© 2014 AZChords.com Contact us | Privacy policy | DMCA | Add/correct tabs | Request tabs | Top 50 tabs