>
 >
I Walk Alone

I Walk Alone Guitar Tabs

Faithless - I Walk Alone chords, tabs, tablatures, lyrics

Guitar lessons | Add/correct | Request | Top 50 tabs Artists:  A B C D E F G H I J K L M N O P Q R S T U V W X Y Z 0-9

I Walk Alone Guitar Tabs – Faithless

CD, Sheet music, Poster

Do you like I Walk Alone? Share with your friends now
Tabs
(Note: to play this song you need 2 Guitarits)

#The following is the original tabs for 'The Faithless'. Please do not copy!

p: pull
h: hammer on
/: slide to
~: wave
>: switch fast
hb: half bend
fb: full bend
ho: hold
r: release

Classic Guitar: (average speed)

E|------------------------------------------------|
B|------3-----3-3-5h/3-----3-----3---------3-----3|
G|----4-----4------------4-----4-----4---2-----2--|
D|--4-----4------------5-----5-----5---4-----4----|
A|------------------------------------------------|
E|------------------------------------------------|

E|--------------------------|
B|-----------2------2-------|
G|----2----2------2-----2---| X2
D|--4----2------2-----2-----|
A|--------------------------|
E|--------------------------|

2 Classical Guitars: (slow)

E|--x-x-x-x-x--x-x-x-x-x--x-x-x-x-x--x-x-x-x-x----|
B|--3-3-3-3-3--x-x-x-x-x--0-0-1-3-1--x-x-x-x-x----|
G|--0-0-0-0-0--x-x-x-x-x--0-0-0-0-0--x-x-x-x-x----|
D|--2-2-2-2-2--0-0-0-0-0--2-2-2-2-2--0-0-0-0-0----| X2
A|--3-3-3-3-3--2-2-2-2-2--3-3-3-3-3--2-2-2-2-2----|
E|--x-x-x-x-x--3-3-3-3-3--x-x-x-x-x--3-3-3-3-3----|

(average speed)
E|-ho-x-x-x--r-x-x-x-x-x-x--x-x-x-x-x-x--0-0-0-0-0-0-|
B|-ho-x-x-x--r-x-x-x-x-x-x--1-1-1-1-1-1--2-2-2-2-2-2-|
G|-ho-1-1-1--r-1-1-1-1-1-1--0-0-0-0-0-0--2-2-2-2-2-2-|
D|-ho-2-2-2--r-2-2-2-2-2-2--2-2-2-2-2-2--2-2-2-2-2-2-| 
A|-ho-2-2-2--r-2-2-2-2-2-2--3-3-3-3-3-3--x-x-x-x-x-x-|
E|-ho-x-x-x--r-x-x-x-x-x-x--x-x-x-x-x-x--x-x-x-x-x-x-|

E|-x-x-x-x-x-x---|
B|-1-1-1-1-1-1---|
G|-0-0-0-0-0-0---| X2
D|-2-2-2-2-2-2---| 
A|-3-3-3-3-3-3---|
E|-x-x-x-x-x-x---|

(Electric Lead Guitar: volume:? Tone:10 Treble:10 Bass:10 CH:Drive)

(average speed, light play)
E|------------------------------------------------|
B|----3-----3-----3-----3---5-----5-----5-----5---|
G|--4---4-4---4-4---4-4---4---4-4---4-4---4-4---4-| X2
D|------------------------------------------------|
A|------------------------------------------------|
E|------------------------------------------------|

E|------------------------------------------------|
B|------------------------------------------------|
G|------------------------------------------------|
D|------------------------------------------------| 
A|--ho-2-2-2-r-2-ho-5-5-5-r-5-ho-7-7-7-r-7-ho-7-7-|
E|--ho-0-0-0-r-0-ho-3-3-3-r-3-ho-5-5-5-r-5-ho-5-5-|


(1st and 2nd Guitar at the same time) 

*Hard play*

(1st)x2
5|--ho-2-2-2-r-2-ho-5-5-5-r-5-ho-7-7-7-r-7-ho-7-7-|
6|--ho-0-0-0-r-0-ho-3-3-3-r-3-ho-5-5-5-r-5-ho-5-5-|

(2nd)x2
1|--12~-12-12-10~-10-10-9~-9-9-7~-7-9-|

(Classical Guitar with electric (electric: light play))

(fast)
E|------------------------------------------------|
B|------3-----3-3-5h/3-----3-----3---------3-----3|
G|----4-----4------------4-----4-----4---2-----2--|
D|--4-----4------------5-----5-----5---4-----4----|
A|------------------------------------------------|
E|------------------------------------------------|

E|--------------------------|
B|-----------2------2-------|
G|----2----2------2-----2---| X2
D|--4----2------2-----2-----|
A|--------------------------|
E|--------------------------|


2 Classical Guitars: 

(average speed)
E|---x-x-x-x---x-x-x-x--0-0-0-0-|
B|---x-x-x-x---1-1-1-1--2-2-2-2-|
G|---1-1-1-1---0-0-0-0--2-2-2-2-|
D|---2-2-2-2---2-2-2-2--2-2-2-2-| 
A|---2-2-2-2---3-3-3-3--x-x-x-x-|
E|---x-x-x-x---x-x-x-x--x-x-x-x-|

E|-x-x-x-x-|
B|-1-1-1-1-|
G|-0-0-0-0-| X2
D|-2-2-2-2-| 
A|-3-3-3-3-|
E|-x-x-x-x-|

(slow)
E|------------0----------|
B|--------3---0----------|
G|------4-----1----------|
D|----4-------2----------| 
A|--2---------2----------|
E|------------x----------|


End of Song.





Comments


Popular Faithless tabs & chords
Don't Leave Chords
In The End Chords
Insomnia Tabs
Insomnia 1 Tabs
Insomnia 2 Tabs
Insomnia 4 Tabs
Insomnia 6 Tabs
Reverence Tabs
We Come One Tabs
Evergreen Ukulele


Song lyrics



↑ Back to top | Tablatures and chords are parodies/interpretations of the original songs. You may use it for private study, scholarship, research or language learning purposes only
© 2014 AZChords.com Contact us | Privacy policy | DMCA | Add/correct tabs | Request tabs | Top 50 tabs