» » »

Insomnia Tabs (ver.1)

Artists:  A B C D E F G H I J K L M N O P Q R S T U V W X Y Z # 

Insomnia Tabs (ver.1)

Faithless
Rating:
2/5 (3 votes)

Hard to play? Try these video lessons and learn fast.
                -----------------------------------------------------------------------------
-----------------------------------------------------------------------------

Tuning: EADGBE (standart)

e|------------------------------------|------------------------------------|
B|--5-5---3--3-3---2--2-2---3--3-2-3--|--5-5---7--7-7---2--2-2---3--3-2-3--|
G|*-4-4-4-4--4-4-4-4--4-4-4-4--4-4-4-*|*-4-4-4-4--4-4-4-4--4-4-4-4--4-4-4-*|
D|*----------------------------------*|*----------------------------------*|
A|------------------------------------|------------------------------------|
E|------------------------------------|------------------------------------|

e|------------------------------------|------------------------------------|
B|--5-5---3--3-3---2--2-2---3--3-2-3--|--5-5---7--7-7---2--2-2---3--3-2-3--|
G|*-4-4-4-4--4-4-4-2--2-2-2-4--4-2-4-*|*-4-4-4-4--4-4-4-2--2-2-2-4--4-2-4-*|
D|*----------------------------------*|*----------------------------------*|
A|------------------------------------|------------------------------------|
E|------------------------------------|------------------------------------|

============================================================================

Hope you like it. It's an amazing sound this one :P

abacate!
            
Hard to play? Try these video lessons and learn fast. | Correct




comments powered by Disqus
↑ Back to top | Tablatures and chords are parodies/interpretations of the original songs. You may use it for private study, scholarship, research or language learning purposes only