>
 >
This Kiss

This Kiss Bass Tabs

Faith Hill - This Kiss chords, tabs, tablatures, lyrics

Guitar lessons | Add/correct | Request | Top 50 tabs Artists:  A B C D E F G H I J K L M N O P Q R S T U V W X Y Z 0-9

This Kiss Bass Tabs – Faith Hill

CD, Sheet music, Poster

Do you like This Kiss? Share with your friends now
Bass TabsChordsChords v2TabsUkulele
-------------------------------------------------------------------------------
-------------------------------------------------------------------------------

Tuning: E A D G


Gtr I (E A D G) - 'BASS'

  Q=97
 4/4
  Gtr I
  W          W          Q  E E E E +Q     Q.   E E E +E  E
|----------|----------|-----------------|-------------------|
|----------|----------|-----------------|-------------------|
|----------|----------|-2----2----------|-------------------|
|----------|----------|--------4-4-(4)--|-5----5-2-2-(2)-2--|


  Q  E E E E +E  E   Q  E E E E +E  E   Q.   E H      H    Q.   E
|------------------|------------------|-------------|-------------|
|------------------|------------------|-------------|-------------|
|-2----2-----------|------------------|-2-----------|-------------|
|--------4-4-(4)-4-|-5----5-2-2-(2)-2-|--------4----|-5----2------|


  Q.   E H      Q.   E Q.   E   Q.   E H      H    Q.   E
|-------------|---------------|-------------|-------------|
|-------------|---------------|-------------|-------------|
|-2-----------|---------------|-2-----------|-------------|
|--------4----|-5------2------|--------4----|-5----2------|


  Q  E E Q  E E   Q.   E Q  E E   Q  E E Q.   S S   Q  E E Q  E S S
|---------------|---------------|-----------------|-----------------|
|----2----------|---------------|----2-2----------|-----------------|
|-------------0-|-----------4-2-|----2-2----------|-----------------|
|-0----0-4----4-|-5----5-7--7---|-0------4----4---|-5----5-7--7-9---|


  Q  E E Q  E E   Q.   E Q  E E   Q  E E Q.   S S   Q  E E E E E E
|---------------|---------------|-----------------|-----------------|
|---------------|---------------|----2-2----------|----7-7----------|
|----7--------0-|-----------4-2-|----2-2----------|-----------------|
|-0----0-4----4-|-5----5-7--7---|-0------4----4---|-5--5---9---7----|


  Q.   E H      H    Q.   E   Q.   E H      Q.   E Q.   E
|-------------|-------------|-------------|---------------|
|-------------|-------------|-------------|---------------|
|-------------|-------------|-2-----------|---------------|
|-7------4----|-5----2------|--------4----|-5------2------|


  Q.   E H      H    Q.   E   Q  E E Q  E E   Q.   E Q  E E
|-------------|-------------|---------------|---------------|
|-------------|-------------|----2----------|---------------|
|-2-----------|-------------|-------------0-|-----------4-2-|
|--------4----|-5----2------|-0----0-4----4-|-5----5-7--7---|


  Q  E E Q.   S S   Q  E E Q  E S S   Q  E E Q  E E   Q.   E Q  E E
|-----------------|-----------------|---------------|---------------|
|----2-2----------|-----------------|---------------|---------------|
|----2-2----------|-----------------|----7--------0-|-----------4-2-|
|-0------4----4---|-5----5-7--7-9---|-0----0-4----4-|-5----5-7--7---|


  Q  E E Q.   S S   Q  E E E E E E   Q  E E Q.   S S   Q  E E E E E E
|-----------------|----------------|-----------------|----------------|
|----2-2----------|----7-7---------|-----------------|----7-7---------|
|----2-2----------|----------------|----7-7----------|----------------|
|-0------4----4---|-5--5---9---7---|-0--7-7-4----4---|-5--5---9---7---|


  Q   E  E Q   Q    Q  E E Q  E E   Q  E E Q  Q    Q  E E Q  E E
|-----------------|---------------|----5-5-------|---------------|
|----10-10--------|----4------5---|------5----7--|----4------5---|
|-------10-0--12--|-----------5---|-3--3---------|-----------5---|
|-8---8-----------|-2----2-3----3-|--------5-----|-2----2-3----3-|


  Q  Q  Q  Q    Q  Q  Q  E E   Q  Q  E E E E   E E E E E E E E
|-------------|--------------|---------------|-----------------|
|-------------|------------0-|-4--4--------4-|-----------------|
|-3--2--0-----|----------2---|---------------|-2-2-2-2-2-2-2-2-|
|----------3--|-2-----3------|-------2-2---2-|-----------------|


  Q  E E Q  E E   Q.   E Q  E E   Q  E E Q.   S S   Q  E E Q  E  S S
|---------------|---------------|-----------------|------------------|
|----4----------|---------------|----4-4----------|------------------|
|--------1----2-|-2----2-4--6-4-|----4-4----------|------------------|
|-2----2------6-|-----------9---|-2------6----6---|-7----7-9--9-11---|


  Q  E E Q  E E   Q.   E Q  E E   Q  E E Q.   S S   Q  E E  E E E E
|---------------|---------------|-----------------|------------------|
|----4----------|---------------|----4-4----------|----9-9-----------|
|--------1----2-|-2----2-4--6-4-|----4-4----------|------------------|
|-2----2------6-|-----------9---|-2------6----6---|-7--7---11---9----|


  Q  E E Q.   S S   Q  E E  E E E E   Q  E E Q.   S S   Q  E E  E E E E
|-----------------|-----------------|-----------------|-----------------|
|----4-4----------|----9-9----------|----4-4----------|----9-9----------|
|----4-4----------|-----------------|----4-4----------|-----------------|
|-2------6----6---|-7--7---11---9---|-2------6----6---|-7--7---11---9---|


  Q  E E Q.   S S   Q  E E  E E E E   Q  E E Q  E E   Q.   E Q  E E
|-----------------|-----------------|---------------|----------------|
|----4-4----------|----9-9----------|----4----------|----------------|
|----4-4----------|-----------------|--------1----2-|-2----2-4--6-4--|
|-2------6----6---|-7--7---11---9---|-2----2------6-|-----------9----|


  Q  E E Q.   S S   Q  E E Q  E  S S   Q  E E Q  E E   Q.   E Q  E E
|-----------------|------------------|---------------|---------------|
|----4-4----------|------------------|----4----------|---------------|
|----4-4----------|------------------|--------1----2-|-2----2-4--6-4-|
|-2------6----6---|-7----7-9--9-11---|-2----2------6-|-----------9---|


  Q  E E Q.   S S   Q  E E  E E E E   Q  E E Q.   S S   Q  E E  E E E E
|-----------------|-----------------|-----------------|-----------------|
|----4-4----------|----9-9----------|----4-4----------|----9-9----------|
|----4-4----------|-----------------|----4-4----------|-----------------|
|-2------6----6---|-7--7---11---9---|-2------6----6---|-7--7---11---9---|


  Q  E E Q.   S S   Q  E E  E E E E   Q  E E Q.   S S   Q  E E  E E E E
|-----------------|-----------------|-----------------|-----------------|
|----4-4----------|----9-9----------|----4-4----------|----9-9----------|
|----4-4----------|-----------------|----4-4----------|-----------------|
|-2------6----6---|-7--7---11---9---|-2------6----6---|-7--7---11---9---|


  Q  E E E E E E   E E Q  +H       +H.      Q
|----------------|---------------|-------------*|
|----4-4-4-4-4-4-|---4-----------|-------------*|
|----------------|---------------|-------------*|
|-2------------2-|-2---2--(2)----|-(2)---------*|


Duration Legend
---------------
W - whole; H - half; Q - quarter; E - 8th; S - 16th; T - 32nd; X - 64th; a - acciaccatura
+ - note tied to previous; . - note dotted; .. - note double dotted
Uncapitalized letters represent notes that are staccato (1/2 duration)
Irregular groupings are notated above the duration line
Duration letters will always appear directly above the note/fret number it represents the
duration for.  Duration letters with no fret number below them represent rests.  Multi-
bar rests are notated in the form Wxn, where n is the number of bars to rest for.  Low
melody durations appear below the staff

Tablature Legend
----------------
 h   - hammer-on
 p   - pull-off
 b   - bend
 pb  - pre-bend
 r   - bend release (if no number after the r, then release immediately)
 /\  - slide into or out of (from/to "nowhere")
 s   - legato slide
 S   - shift slide
  - natural harmonic
[n]  - artificial harmonic
n(n) - tapped harmonic
 ~   - vibrato
 tr  - trill
 T   - tap
 TP  - trem. picking
 PM  - palm muting
\n/  - tremolo bar dip; n = amount to dip
 \n  - tremolo bar down
 n/  - tremolo bar up
/n\  - tremolo bar inverted dip
 =   - hold bend; also acts as connecting device for hammers/pulls
 <>  - volume swell (louder/softer)
 x   - on rhythm slash represents muted slash
 o   - on rhythm slash represents single note slash

Misc Legend
-----------
 |  - bar
||  - double bar
||o - repeat start
o|| - repeat end
*|  - double bar (ending)
 :  - bar (freetime)
 $  - Segno
 &  - Coda
Tempo markers -  = BPM(8/16=s8/s16), where s8 = swing 8ths, s16 = swing 16ths





Comments


Popular Faith Hill tabs & chords
American Heart Chords
I Would Be Stronger Than That Chords
If I Should Fall Behind Chords
Love Ain't Like That Chords
There Will Come a Day Chords
There You'll Be 2 Chords
This Is Me Chords
Breathe (tabs) Tabs
What's In It For Me Tabs
It Will Be Me Ukulele


Song lyrics



↑ Back to top | Tablatures and chords are parodies/interpretations of the original songs. You may use it for private study, scholarship, research or language learning purposes only
© 2014 AZChords.com Contact us | Privacy policy | DMCA | Add/correct tabs | Request tabs | Top 50 tabs