» » »

There You'll Be Tabs (ver.1)

Artists:  A B C D E F G H I J K L M N O P Q R S T U V W X Y Z # 

There You'll Be Tabs (ver.1)

Faith Hill
Rating:
0/5 (0 votes)

Hard to play? Try these video lessons and learn fast.
                -------------------------------------------------------------------------------
-------------------------------------------------------------------------------

A Great song by Faith Hill
for any comments, 
requests or anything to Haim Shimshilashvili

**Regular Tuning**
**Capo on 1st Fret**

The intro is pretty easy, twice almost the same.
Enjoy!

   G                D
  E|---------------------------------------------------|
  B|-------3p0------------3p0--------------------------|
  G|-----0--------------0------------------------------|
  D|---0--------------0--------------------------------|
  A|---------------------------------------------------|
  E|-3--------------3----------------------------------|

   G                D
  E|---------------------------------------------------|
  B|-------3p0------------3p0--------------------------|
  G|-----0--------------0------------------------------|
  D|---0--------------0--------------------------------|
  A|---------------------------------------------------|
  E|-3--------------3----------------------------------|

   G                D
  E|---------------------------------------------------|
  B|-------3p0------------3p0--------------------------|
  G|-----0--------------0------------------------------|
  D|---0--------------0--------------------------------|
  A|---------------------------------------------------|
  E|-3--------------3----------------------------------|

   G                D
  E|---------------------------------------------------|
  B|-------3p0------------3p0--------------------------|
  G|-----0--------------0------------------------------|
  D|---0--------------0--------------------------------|
  A|---------------------------------------------------|
  E|-3--------------3----------------------------------|

*********************************************
Intro: G D G D
         
-First Verse-
         G
When I think back on these times
         D
And the dreams we left behind
        C                   G                 C              D
I'll be glad coz i've been blessed to get to have you in my life
         G
When i look back on these days
      D                  C
I'll look and see your face
G                       G  
You were right there for me

C Bm C|D

-Chorus-

Em                D               C                 G
In my dreams i'll always see you soar above the sky
Em                   D          C            
In my heart there'll always be a place for you
     D       C       G
For all my life   
G        D     Em              C
  I'll keep a part of you with me
      C      G            D        G
And every where i am there you'll be


-Second Verse-

         G
Well you showed me How it feels
         D
To feel the sky Within my reach
        C                  G               C            D
And I always Will remember all The strength you Gave to me
         G
Your love made me Make it through
   D                C
Oh, I owe so much to you
G                       G  
You were right there for me

-Chorus-

Em                D               C                 G
In my dreams i'll always see you soar above the sky
Em                   D          C            
In my heart there'll always be a place for you
     D       C       G
For all my life   
G        D     Em              C
  I'll keep a part of you with me
      C      G            D        G
And every where i am there you'll be

****



Bridge
D              G                C             D G D 
Cause i always saw in you my light my strength
 D           G                  Em         C
And i wanna thank you now for all the ways
C                      G
You were right there for me
Em                       C
You were right there for me 
        D
For always

-Chorus-

Em                D               C                 G
In my dreams i'll always see you soar above the sky
Em                   D          C            
In my heart there'll always be a place for you
     D       C       G
For all my life   
G        D     Em              C
  I'll keep a part of you with me
      C      G            D        G
And every where i am there you'll be

      C      G            D        
And every where i am there you'll be

Hope You Enjoyed.. My pleasure.
            
Hard to play? Try these video lessons and learn fast. | Correct




comments powered by Disqus
↑ Back to top | Tablatures and chords are parodies/interpretations of the original songs. You may use it for private study, scholarship, research or language learning purposes only