» » »

Fairweather, Young Brash Hopeful Bass tabs (ver.1)

Artists:  A B C D E F G H I J K L M N O P Q R S T U V W X Y Z # 

Young Brash Hopeful Bass tabs (ver.1)

Fairweather Tabs
Rating:
0/5 (0 votes)
Young Brash Hopeful lessons Tabs too difficult? Try these video lessons and learn fast
                Artist	Fairweather
Song	Young.Brash.Hopeful.
Album	If They Move...Kill Them

Dropped D


Intro
G|-------------------------------|--------------------------------------|
D|-------------------------------|--------------------------------------|
A|-------------------------------|--------------------------------------|
D|-9-99-99-55-5/12\5-0-0-0-00-55-|-9-99-99-55-5/12\5-0-0-0-00-5555-5555-|

CHorus			2x  2nd time:
G|-----------------------------------------|-----|
D|-----------------------------------------|-----|
A|-----------------------------------------|-----|
D|-9999-9977-5555-5555-0000-0000-5555-5555-|--5--|

Verse					  4x
G|--------------------------------------------------------------------|
D|--------------------------------------------------------------------|
A|-55-5-555-5-555-5------------------22-2-222-2-000-------------------|
D|------------------55-5-555-5-555-5----------------555-5-555-5-555-5-|

INtro	1x
Chorus	2x
Verse	4x
Intro	1x
Chorus	2x

Outro			3x
G|-----------------------------------------------|---------------------
D|-----------------------------------------------|---------------------
A|--------------------------2222-22-00-----------|----------------0000-
D|-0000-0000-5555-55/7\5-55------------5555-5555-|-0000-0000-5555------
Cont.
G|-------------------------|------------------------|
D|-------------------------|------------------------|
A|-2222-2200---------------|------------------------|
D|-----------5555-5555-0~--|-5~--5/9~-9\7~-7\5~-0~--|

Please rate this tab. Thanks
            

comments powered by Disqus
↑ Back to top | Fairweather Bass for Young Brash Hopeful. Lyrics for acoustic guitar and electric guitar. Tablatures and chords are parodies/interpretations of the original songs. You may use it for private study, scholarship, research or language learning purposes only