» » »

Fairweather, Motion Sickness Bass tabs (ver.1)

Artists:  A B C D E F G H I J K L M N O P Q R S T U V W X Y Z # 

Motion Sickness Bass tabs (ver.1)

Fairweather Tabs
 Rating:
4/5 (4 votes)
Motion Sickness lessons Tabs too difficult? Try these video lessons and learn fast
                Artist	Fairweather
Song	Motion Sickness
Album	If They Move...Kill Them

standard tuning


Intro			2x
1|-----------------------------------|
2|-----------------------------------|
3|-----------------------------------|
4|-5555-5555-7777-7777-00-000-000-00-|

Verse				  2x	2nd
1|-------------------------------------------------------------|---|
2|-------------------------------------------------------------|---|
3|-------------------------------------------------------------|---|
4|-xx0xx0xxx0x0x0-xx3xx3xxx3x3x3-xx4xx4xxx4x4x4-xx5xx5xxx5x5x5-|xx5|

Chorus			4x
1|--------------------------------------|
2|--------------7--9--------------------|
3|-----------7-7--7-7-------------------|
4|-7777-7777----------55555555-55555555-|

Intro	2x
Verse	2x
Chorus	4x|    |
	  |    |
	  |REST|
	  |    |

Interlude			2x
1|------------------------------------------------|
2|------------------------------------------------|
3|--------9h11---11------9----9-------4--6--7--7--|
4|-9-9h11------9----7--7--7--7---5--5--5--5--5--5-|

Bridge					2x
1|---------------------------------------------------------------------------|
2|---------------------------------------------------------------------------|
3|------------------------------------------------7777-7777------------------|
4|-9999-9999-7777-7777-55555555-5555555-9999-9999-----------55555555-5555555-|

Then play BRidge 2x fast

End
|------|
|------|
|------|
|--5~--|

Please rate this tab. Thanks
            
Submit corrections

comments powered by Disqus
↑ Back to top | Fairweather Bass for Motion Sickness. Lyrics for acoustic guitar and electric guitar. Tablatures and chords are parodies/interpretations of the original songs. You may use it for private study, scholarship, research or language learning purposes only