» » »

Fairweather, If They Move Kill Them Tabs (ver.1)

Artists:  A B C D E F G H I J K L M N O P Q R S T U V W X Y Z # 

If They Move Kill Them Tabs (ver.1)

Fairweather Tabs
 Rating:
4/5 (4 votes)
If They Move Kill Them lessons Tabs too difficult? Try these video lessons and learn fast
                (Intro)
fairweather isnt a huge popular band, but they are good. I was just messin around on my 
old SG and figured out the tab...

Drop D tuning - D A D G B e

Guitar 1
|-----------------|
|-----------------|
|-----------------|
|-0-0-0-0-0-0-0-0-|  x12(drums in after 4)
|-----------------|
|-----------------|

Guitar 1
|-----------------|
|-----------------|
|-7-7-7-7-7-7-7-7-|
|-----------------|  roughly 10 times behind guitar 2
|-----------------|
|-----------------|


Guitar 2
|---------------------10-----10-----10-----10-|
|-----------------7h8----7h8----7h8----7h8----|
|---------------------------------------------|
|--------------5~-----------------------------|
|-0-0--0-0--0--5~-----------------------------|
|-0-0--0-0--0--5~-----------------------------|
  . .  . .  .

|-----------------10------------|
|--------------------10------10-|
|-----------------------7--7----|
|--------------5~---------------|
|-0-0--0-0--0--5~---------------|
|-0-0--0-0--0--5~---------------|
  . .  . .  .

|---------------------10-----10-----10-----10-|
|-----------------7h8----7h8----7h8----7h8----|
|---------------------------------------------|
|--------------5~-----------------------------|
|-0-0--0-0--0--5~-----------------------------|
|-0-0--0-0--0--5~-----------------------------|
  . .  . .  .

|-----------------10-------10------10------10-------10~~-|
|--------------------10-------10------10------10---------|
|-----------------------7--------7-------7-------7-------|
|--------------5~----------------------------------------|
|-0-0--0-0--0--5~----------------------------------------|
|-0-0--0-0--0--5~----------------------------------------|
  . .  . .  .

Words don't contain subtlety....
|----------------------------------------------------|
|----------------------------------------------------|
|-77777777-------------------------------------------|
|-77777777--55555555--0-0--000-0-0--000--0-0-000-0-0-|
|-55555555--55555555--0-0--000-0-0--000--0-0-000-0-0-|
|----- -----55555555--0-0--000-0-0--000--0-0-000-0-0-|
                      . .  ... . .  ...  . . ... . .

thats all i got right now...ill add more later on..

rate me :D
            
Submit corrections

comments powered by Disqus
↑ Back to top | Fairweather Tabs for If They Move Kill Them. Lyrics for acoustic guitar and electric guitar. Tablatures and chords are parodies/interpretations of the original songs. You may use it for private study, scholarship, research or language learning purposes only