» » »

Fairweather, If They Move Kill Them Bass tabs (ver.1)

Artists:  A B C D E F G H I J K L M N O P Q R S T U V W X Y Z # 

If They Move Kill Them Bass tabs (ver.1)

Fairweather Tabs
 Rating:
4/5 (4 votes)
If They Move Kill Them lessons Tabs too difficult? Try these video lessons and learn fast
                Artist	Fairweather
Song	If They Move...Kill Them
Album	If They Move...Kill Them

Drop D tuning


Intro		      4x
G|---------------------------------|-------------------|------|
D|---------------------------------|-------------------|------|
A|---------------------------------|-------------------|------|
D|-00-000-00-5~--55555555-55555555-|-55555555-55555555-|--0~--|

1st Verse				2x
G|------------------------------------------------------|
D|------------------------------------------------------|
A|-5555-5555--------------------------------------------|
D|-----------4444-5555--44-444-444-444-422-222-222-222--|

2nd Verse
G|----------------------------------------------|
D|----------------------------------------------|
A|-2222-2222-----------7777-7777-9999-9h11p9-77-|
D|-----------5555-5555--------------------------|

1st Verse	2x
2nd Verse	2x

Next:	>=16x
G|-----------------|
D|-----------------|
A|-----------------|
D|-5>--7>--5>--7~--|

Bridge					  3x
G|-------------------------------------|----------5--------------------------|
D|-------------------------------------|--------57-75--57--------------------|
A|-9-7-5-5-55-55-5/9-7-5--7------------|-9-7-5-5-----55--9-7-5--7------------|
D|--------------------------22-22-22-2-|--------------------------22-22-22-2-|

Next:		2x	2nd Time    4x
G|-----------------------------------|---------|------|
D|-----------------------------------|---------|------|
A|-----------------------------------|---------|------|
D|-55-555-555-555-5-77-777-777-777-7-|-444-555-|--0~--|

Interlude			2x
G|-----------------------------------------|-------------------------------|
D|-----------------------------------------|-------------------------------|
A|-----------------------------------------|-------------------------------|
D|-0000-0000-9999-9999-7777-7777-5555-5555-|-0-0-00-5-5-5/9\5-0-0-00-55-77-|

Ending		Interlude 2x	    	
G|------|  |			|------|
D|------|  |			|------|
A|------|4x|			|------|3x
D|--0~--|  |			|--0~--|

PLease rate this tab. Thanks
            
Submit corrections

comments powered by Disqus
↑ Back to top | Fairweather Bass for If They Move Kill Them. Lyrics for acoustic guitar and electric guitar. Tablatures and chords are parodies/interpretations of the original songs. You may use it for private study, scholarship, research or language learning purposes only