» » »

Fairweather, Casting Curses Bass tabs (ver.1)

Artists:  A B C D E F G H I J K L M N O P Q R S T U V W X Y Z # 

Casting Curses Bass tabs (ver.1)

Fairweather Tabs
 Rating:
4/5 (4 votes)
Casting Curses lessons Tabs too difficult? Try these video lessons and learn fast
1
                Artist	Fairweather
Song	Casting Curses
Album	If They Move...Kill Them

standard tuning


Intro/Chorus
1|--------------------------------------------------------------
2|--------------------------------------------------------------
3|-4-4444-2----------------7-66-6-4-4444-2--------------7-66-6--
4|----------55-5555-r-0-00-----------------55-5555-0000---------
Cont.
1|-----------------------------------------------------------|
2|-----------------------------------------------------------|
3|-4-4444-2----------------7-66-6-4-4444-2-------------------|
4|----------55-5555-r-0-00-----------------55-5555-0000-0000-|

Then:
1|-----------------------------------------------|
2|-----------------------------------------------|
3|-----------------------------------------------|
4|-5~--0~--5555-5555-5555-7777-00000000-00000000-|

1st Verse			2x
1|-----------------------------------------|
2|-----------------------------------------|
3|-----------------------------------------|
4|-5555-5555-5555-7777-0000-0000-0000-0000-|

2nd Verse		        2x	
1|-----------------------------------|
2|-----------------------------------|
3|-----------------------------------|
4|-5555-5-55-55-5-7-0000-0-00-00-0-0-|

Chorus	1x
1st Verse	1x
2nd Verse	2x
Chorus	1x

Interlude		2x
1|-------------------------|
2|-------------------------|
3|-------------------------|
4|-0000-0000-5-55-5-55-7\--|

Bridge			    4x	
1|-----------------------------------------------|
2|-------------------------------7h9p7-----------|
3|-7777-7766-------------------------------------|
4|-----------4444-4444-5555-5555-------5555-5555-|
Followed by
1|------------------------------------------------|
2|-------------------------------7h9p7------------|
3|-7777-7766--------------------------------------|
4|-----------4444-4444-5555-5555-------5-r--0/7\0-|

Interlude	4x|------|
	  |------|
	  |------|
	  |--0~--|

Please rate this tab. Thanks
            
Submit corrections

comments powered by Disqus
↑ Back to top | Fairweather Bass for Casting Curses. Lyrics for acoustic guitar and electric guitar. 1 Tablatures and chords are parodies/interpretations of the original songs. You may use it for private study, scholarship, research or language learning purposes only